PrimaNota.ru - самый крупный в мире бесплатный архив песенных текстов, аккордов, табулатур и нот


Speck - Brilliant - таба, видео

Регистрация Запомнить меня
Войти через:  Facebook Google Twitter Vk Yandex Mail.ru

Speck - Brilliant - таба, видео

Печатать
Просмотров: 62
		   Title: Brilliant
Artist: Speck
Tabbed By: Me....      icbm1701@hotmail.com

It's a really simple song.  You play it just......

A    D    G         over and over and over etc. etc......


If you have an electric unlike me you can play around with the intro  
which is...      
G----6-6---7-7-7---4-4--------------------------------------------------------------------    
4x
D-------------------------------7-7-7-------------------------------------------------------    
  then keep going through the verse

My neighbor said he thought he saw me 
drop my car keys in my coffee
I'm sure they drifted into traffic
this day's turning problematic

Chorus:

A D G        D
       I'm brilliant     

I'm so smart I scare myself      I'm brilliant 

Intro

Asked a girl out on a friday 
took her to piere la france (or whatever that is)
put my hand in my jeans pocket 
left my money in my dockers.

Chorus

Solo:

I think it goes like this.....

e-----9------9------10-----10------7-----7----------------------7--------------------------
B------------------------------------------------------10------10-------------------------
G-6-----6-------7------7---------4-----4------------------------------------------------
D--------------------------------------------------7-------7-----------------------------      
repeat
a couple of times. last time end on 10

Heard of Jesus on a Sunday 
Gave my life to him by monday 
the love I've from Him is so strong 
I can't beleive it took me so long

Chorus 

do the intro a start to fade another guitar does the solo and you fade 
out.

If you think it's too easy try barring    
             A              D                  G
--------------5--------------5-------------------3-----------------------------------------
--------------5--------------7-------------------3-----------------------------------------
--------------6--------------7-------------------4---------------------------------------
--------------7--------------7-------------------5---------------------------------------------
--------------7--------------5-------------------5--------------------------------------------
--------------5-----------------------------------3-----------------------------------------------

It may be played that way I can't tell.

Catch ya'll later.......

I.C.B.M.
     
Добавлено: 03.11.2013
Вам также может быть интересно:
Другие материалы по этой песне:
  • Аккорды и текст

Страница создана 03.11.2013
http://primanota.ru/speck/brilliant-chords.htm
Привет, Гость.
Предлагаем пройти революционный курс по гитаре.
Подарок от PrimaNota.Ru, забирай!