PrimaNota.ru - самый крупный в мире бесплатный архив песенных текстов, аккордов, табулатур и нот


Specials - Youre Wondering Now - бас-таба, видео

Регистрация Запомнить меня
Войти через:  Facebook Google Twitter Vk Yandex Mail.ru

Specials - Youre Wondering Now - бас-таба, видео

Печатать
Просмотров: 42
Авторы музыки: Clement "Coxsone" Dodd
Авторы текста: Clement "Coxsone" Dodd
You're Wondering Now - The Specials


Intro and chorus 1

   A               E               D               A               A
G-----------------------------------------------------------------------------------|
D--------------------------6-9-7-6---------4-7-5-4----------------------------------|   x3
A----------4-7-5-4-7-----7---------5-----5-----------------4-7-5-4---------4-7-5-4--|
E--5-----5-----------------------------------------5-----5---------5-----5----------|

   A               E               D               A               A
G-----------------------------------------------------------------------------------|
D--------------------------6-9-7-6---------4-7-5-4----------------------------------|
A----------4-7-5-4-7-----7---------5-----5-----------------4-7-5-4---------4---7----|
E--5-----5-----------------------------------------5-----5---------5-----5----------|

Bridge 1

   D               D               A               A
G-------------------------------------------------------------------|
D----------4-7-5-4---------4-7-5-4----------------------------------|
A--5-5---5---------5-----5-----------------4-7-5-4---------4---7----|
E----------------------------------5-----5---------5-----5----------|

   D               D               B               E               E
G-----------------------------------------------------------------------------------|
D----------4-7-5-4---------4-7-----------------------------6-9-7-6---------6-9-7-6--|
A--5-----5---------5-----5-----------------6-9-7-6-7-----7---------7-----7----------|
E----------------------------------7-----7------------------------------------------|

Chorus 2 and solo

   A               E               D               A               A
G-----------------------------------------------------------------------------------|
D--------------------------6-9-7-6---------4-7-5-4----------------------------------|   x2
A----------4-7-5-4-7-----7---------5-----5-----------------4-7-5-4---------4-7-5-4--|
E--5-----5-----------------------------------------5-----5---------5-----5----------|

   A               E               D               A               A
G-----------------------------------------------------------------------------------|
D--------------------------6-9-7-6---------4-7-5-4----------------------------------|
A----------4-7-5-4-7-----7---------5-----5-----------------4-7-5-4---------4---7----|
E--5-----5-----------------------------------------5-----5---------5-----5----------|


Bridge 2

   D               D               A               A
G-------------------------------------------------------------------|
D----------4-7-5-4---------4-7-5-4----------------------------------|
A--5-----5---------5-----5-----------------4-7-5-4---------4---7----|
E----------------------------------5-----5---------5-----5----------|

   D               D               B               E               E
G-----------------------------------------------------------------------------------|
D----------4-7-5-4---------4-7-5-4-------------------------6-9-7-6------------------|
A--5-----5---------5-----5-----------------6-9-7-6-7-----7---------7----------------|
E----------------------------------7-----7----------------------------------17\-----|


Chorus 3

   A               E               D               A               A
G-----------------------------------------------------------------------------------|
D--------------------------6-9-7-6---------4-7-5-4----------------------------------|
A----------4-7-5-4-7-----7---------5-----5-----------------4-7-5-4---------4-7-5-4--|
E--5-----5-----------------------------------------5-----5---------5-----5----------|

   A               E               D               A               A
G---------------------------------------------------------------------|
D--------------------------6-9-7-6---------4-7-5-4--------------------|
A----------4-7-5-4-7-----7---------5-----5-----------------4-7-5-4----|
E--5-----5-----------------------------------------5-----5---------5--|
Добавлено: 09.10.2014
Другие материалы по этой песне:
  • Аккорды и текст

Страница создана 09.10.2014
http://primanota.ru/specials/youre-wondering-now-chords.htm
Привет, Гость.
Предлагаем пройти революционный курс по гитаре.
Подарок от PrimaNota.Ru, забирай!