PrimaNota.ru - самый крупный в мире бесплатный архив песенных текстов, аккордов, табулатур и нот


Specials - My Tears Come Falling Down Like Rain - аккорды и текст, видео

Регистрация Запомнить меня
Войти через:  Facebook Google Twitter Vk Yandex Mail.ru

Specials - My Tears Come Falling Down Like Rain - аккорды и текст, видео

Печатать
Просмотров: 42
My Tears Come Falling Down Like Rain
Specials
/ = slide

Intro:		[E--8/10--10-10-8--8/10-----------
B-----------------------10-10-8--
G--------------------------------
D--------------------------------
A--------------------------------
E--------------------------------

Verse and chorus:
E--7-7-7-7-7-7-7-7--8-8-8-8--10-10-10-10--
B--8-8-8-8-8-8-8-8--8-8-8-8--10-10-10-10--
G--7-7-7-7-7-7-7-7--9-9-9-9--12-12-12-12--
D-----------------------------------------
A-----------------------------------------
E-----------------------------------------

Bridge:		E--3-3-3-3-3-3-3-3--0-0-0-0--2-2-2-2--
B--0-0-0-0-0-0-0-0--1-1-1-1--3-3-3-3--
G--0-0-0-0-0-0-0-0--0-0-0-0--2-2-2-2--
D--0-0-0-0-0-0-0-0--2-2-2-2--0-0-0-0--
A--2-2-2-2-2-2-2-2--3-3-3-3--0-0-0-0--
E--3-3-3-3-3-3-3-3--------------------]
Добавлено: 20.10.2014
Вам также может быть интересно:
Другие материалы по этой песне:
  • Аккорды и текст

Страница создана 20.10.2014
http://primanota.ru/specials/my-tears-come-falling-down-like-rain-chords.htm
Привет, Гость.
Предлагаем пройти революционный курс по гитаре.
Подарок от PrimaNota.Ru, забирай!