PrimaNota.ru - самый крупный в мире бесплатный архив песенных текстов, аккордов, табулатур и нот


Speakerbox - Hit the - бас-таба, видео

Регистрация Запомнить меня
Войти через:  Facebook Google Twitter Vk Yandex Mail.ru

Speakerbox - Hit the - бас-таба, видео

Печатать
Просмотров: 100


Speakerbox-Hit the Bass
Tabbed by BigBangBert

Tuning: E A D G H e

Go get an acoustic guitar and a DJ 


	3x	then
e|----------------|----------------------------------------------------------|
B|----------------|----------------------------------------------------------|
G|----------------|----------------------------------------------------------|
D|-----8-8------5-|--3-3-3-3-3-3-3-3-----------------------------------------|
A|-----8-8------5-|--3-3-3-3-3-3-3-3-----------------------------------------|
E|-5/6-6-6--4/3-3-|--1-1-1-1-1-1-1-1-----------------------------------------|


		2x
e|---------------------------------------------------------------------------|
B|---------------------------------------------------------------------------|
G|-------------------7-7-7-7-8-8-8-8-----------------------------------------|
D|-3-5-5-5-3-3-5-5-5-7-7-7-7-8-8-8-8-----------------------------------------|
A|-3-5-5-5-3-3-5-5-5-5-5-5-5-6-6-6-6-----------------------------------------|
E|-1/3-3-3-1-1/3-3-3---------------------------------------------------------|

Repeat as often as you hear it 



Solos
I think that all the solos (except the one in the end) are based on this scale
(if you're playing guitar for a while you'll know what I mean)
e|----------------------5-8|
B|------------------5-8----|
G|--------------5-7--------|
D|----------5-7------------|
A|-----5-7-----------------|
E|-5-7---------------------|


Cheers 

Добавлено: 03.10.2013
Вам также может быть интересно:
Другие материалы по этой песне:
  • Аккорды и текст

Страница создана 03.10.2013
http://primanota.ru/speakerbox/hit-the-chords.htm
Привет, Гость.
Предлагаем пройти революционный курс по гитаре.
Подарок от PrimaNota.Ru, забирай!