PrimaNota.ru - самый крупный в мире бесплатный архив песенных текстов, аккордов, табулатур и нот


Speak Low If You Speak Love - Knots - таба, видео

Регистрация Запомнить меня
Войти через:  Facebook Google Twitter Vk Yandex Mail.ru

Speak Low If You Speak Love - Knots - таба, видео

Печатать
Просмотров: 133
Уроки эстрадного вокала в Санкт-Петербурге
"Knots" by Speak Low If You Speak Love
Tuning: D#-G-A#-D#-A#-D#
Based mostly off of live performances.

Key:
p: pull-off
h: hammer-on
*: palm mute
/: slide
~: let ring

Intro:
e|------------------------------------------------------|
B|------------------------------------------------------|
G|--------7p0----------4p0----------0-----------0~------|
D|------------0------------0----0-----0-----0-----0~----|
A|----8------------5----------1---1-----0h1---1---------| x4
E|--9---9--------7---7----------------------------------|


Verse 1:         "I've got knots in my hair..."
e|------------------------------------------------------|
B|------------------------------------------------------|
G|--------7p0----------4p0----------0-----------0~------|
D|------------0------------0----0-----0-----0-----0~----|
A|----8------------5----------1---1-----0h1---1---------| x4
E|--9---9--------7---7----------------------------------|


Pre-chorus:    "You're too far..."
e|------------------------------------------------------|
B|------------------------------------------------------|
G|------------------------------------------------------|
D|------------------------------------------------------|
A|----887755--8-88888--8-88888--------------------------| x3
E|--00000000--4-44444--5-55555--------------------------|
    ** *****    *****    *****



e|------------------------------------------------------|
B|--------------------------------------------------0~--|
G|------------------------------------------7/12\11-----|
D|---------------------------------------7h9------------|
A|----12121212121212121212121212--10--7h8---------------| x1
E|--999-9-9-9-9-9-9-9-9-9-9-9-9-777---------------------|
    **  * * * * * * * * * * * * **

Chorus 1:        "History repeats itself..."
e|------------------------------------------------------|
B|------------------------------------------------------|
G|--0000----7777----4444----4444------------------------|
D|--0777----0000----7777----0000------------------------|
A|--8888----5555----0000----8888------------------------| x3
E|--0000----0000----5555----5555------------------------|
    
e|------------------------------------------------------|
B|------------------------------------------------------|
G|--0000----7777----4-----------------------------------|
D|--0777----0000----7-----------------------------------|
A|--8888----5555----8-----------------------------------| x1
E|--0000----0000----5-----------------------------------|

Interlude:
e|------------------------------------------------------|
B|------------------------------------------------------|
G|--------7p0----------4p0----------0-----------0~------|
D|------------0------------0----0-----0-----0-----0~----|
A|----8------------5----------1---1-----0h1---1---------| x2
E|--9---9--------7---7----------------------------------|

Verse 2:        "It's like pulling teeth..."
e|------------------------------------------------------|
B|------------------------------------------------------|
G|--------7p0----------4p0----------0-----------0~------|
D|------------0------------0----0-----0-----0-----0~----|
A|----8------------5----------1---1-----0h1---1---------| x2
E|--9---9--------7---7----------------------------------|
            "Now I'm pulling out every strand..."
e|-------------------------0~0000-0~0000----------------|
B|-------------------------0~0000-0~0000----------------|
G|-------------------------0~0000-0~0000----------------|
D|-------------------------9~9999-9~9999----------------|
A|------33-55-78--10-------8~8888-8~8888----------------| x2
E|----0000-00-00--0-00700--5~5555-5~5555----------------|

Pre-chorus:    "As I wait for you to tell me you love me."
e|------------------------------------------------------|
B|--------0~-----------0~-------------------------------|
G|---------------------------------0~-------------------|
D|----5------------9------------0-----------------------|
A|--5---5--------8---8--------1---1---------------------| x3
E|------------------------------------------------------|
                                "to tell me that"
e|------------------------------------------------------|
B|--------0~-----------0~-------------------------------|
G|------------------------------------------------------|
D|----5------------9------------------------------------|
A|--5---5--------8---8--------1~------------------------| x1
E|------------------------------------------------------|

Chorus 2:        "history repeats itself..."
e|------------------------------------------------------|
B|------------------------------------------------------|
G|--0007----7777----4444----4444------------------------|
D|--0777----0000----7777----0000------------------------|
A|--8888----5555----0000----8888------------------------| x2
E|--0000----0000----5555----5555------------------------|

Bridge:        "I reserve the right..."
e|------------------------------------------------------|
B|------------------------------------------------------|
G|--0007----7777----4444----4444------------------------|
D|--0777----0000----7777----0000------------------------|
A|--8888----5555----0000----8888------------------------| x2
E|--0000----0000----5555----5555------------------------|

"Reserve the right to change to the ending, I"
e|------------------------------------------------------|
B|------------------------------------------------------|
G|--0007----7777----4444----4444------------------------|
D|--0777----0000----7777----7777------------------------|
A|--8888----5555----0000----0000------------------------| x4
E|--0000----0000----5555----5555------------------------|

e|------------------------------------------------------|
B|------------------------------------------------------|
G|--0007----7777----4444----4444------------------------|
D|--0777----0000----7777----0000------------------------|
A|--8888----5555----0000----8888------------------------| x4
E|--0000----0000----5555----5555------------------------|

Outro:
e|------------------------------------------------------|
B|------------------------------------------------------|
G|--------7p0----------4p0----------0-----------0~------|
D|------------0------------0----0-----0-----0-----0~----|
A|----8------------5----------1---1-----0h1---1---------| x2
E|--9---9--------7---7----------------------------------|

        "The story stays the same..."
e|------------------------------------------------------|
B|------------------------------------------------------|
G|--------7p0----------4p0----------0-----------0~------|
D|------------0------------0----0-----0-----0-----0~----|
A|----8------------5----------1---1-----0h1---1---------| x4
E|--9---9--------7---7----------------------------------|


Добавлено: 27.12.2015
Другие материалы по этой песне:
  • Аккорды и текст

Страница создана 27.12.2015
http://primanota.ru/speak-low-if-you-speak-love/knots-chords.htm
Привет, Гость.
Предлагаем пройти революционный курс по гитаре.
Подарок от PrimaNota.Ru, забирай!