PrimaNota.ru - самый крупный в мире бесплатный архив песенных текстов, аккордов, табулатур и нот


Spazz - Street Jam To The Second Power - таба, видео

Регистрация Запомнить меня
Войти через:  Facebook Google Twitter Vk Yandex Mail.ru

Spazz - Street Jam To The Second Power - таба, видео

Печатать
Просмотров: 85
Уроки эстрадного вокала в Санкт-Петербурге
SPAZZ - STREET JAM TO THE SECOND POWER 

e|-------------------------------------------------|
B|-------------------------------------------------|
G|-------------------------------------------------|
D|-0-0-0-7-7-7-6-6-6-8-8-8-7-7-7-9-9-9-8-8-8-8-8-8-| x4
A|-0-0-0-5-5-5-4-4-4-6-6-6-5-5-5-7-7-7-6-6-6-6-6-6-|
D|-0-0-0-------------------------------------------|

e|-------------------------------------------------|
B|-------------------------------------------------|
G|-------------------------------------------------|
D|-7-7-7-7-7-7-7-7-7-7-7-7-5-5-5-5-5-5-4-4-4-4-4-4-| x2
A|-5-5-5-5-5-7-5-5-5-5-5-7-5-5-5-5-5-5-4-4-4-4-4-4-|
D|-----------7-----------7-5-5-5-5-5-5-4-4-4-4-4-4-|

e|------------------------------------------------|
B|------------------------------------------------|
G|------------------------------------------------|
D|-000-4-000-4-8888-99-1010-000-4-000-4-----------| 
A|-000-4-000-4-8888-99-1010-000-4-000-4-9999-8888-|
D|-000-4-000-4-8888-99-1010-000-4-000-4-9999-8888-|

e|----------|
B|----------|
G|----------|
D|-0000-9-8-| x4
A|-0000-9-8-|
D|-0000-9-8-|

Bass

e|--------------|
B|--------------|
G|--------------|
D|-0------------|
A|-0-(Let ring)-|
D|-0------------|
Добавлено: 14.07.2013
Другие материалы по этой песне:
  • Аккорды и текст

Страница создана 14.07.2013
http://primanota.ru/spazz/street-jam-to-the-second-power-chords.htm
Привет, Гость.
Предлагаем пройти революционный курс по гитаре.
Подарок от PrimaNota.Ru, забирай!