PrimaNota.ru - самый крупный в мире бесплатный архив песенных текстов, аккордов, табулатур и нот


Sparta - Weather The Storm - текст песни, таба, видео

Регистрация Запомнить меня
Войти через:  Facebook Google Twitter Vk Yandex Mail.ru

Sparta - Weather The Storm - текст песни, таба, видео

Печатать
Просмотров: 78
Artist:    Sparta
Album:     Threes
Song:      Weather the Storm
Tabbed by: Mike Tucker

Pretty sure this is right, or damn close.

 Intro
GTI-Jim
E|----------------------------------------------------------------||
B|----------------------------------------------------------------||
G|----------------------------------------------------------------||
D|---12-----11----10----9-----------------------------------------||
A|---12-x6--11-x6-10-x6-9-x6--------------------------------------||
D|---12-----11----10----9-----------------------------------------||
GT2-Keely
E|---------------------------9----------------------------7-------||
B|------------------------------------------------------7--7--7---||
G|--11-12-11-11-12-11-10--11--11-10-11--9-11-9-9-11-9-8-----8-----||
D|----------------------------------------------------------------||
A|----------------------------------------------------------------||
D|----------------------------------------------------------------||


Verse
GTI-Jim
E|----------------------------------------------------------------||
B|----------------------------------------------------------------||
G|----------------------------------------------------------------||
D|---12-----11----10----9-----------------------------------------||
A|---12-x6--11-x6-10-x6-9-x6--------------------------------------||
D|---12-----11----10----9-----------------------------------------||
GT2-Keely
E|----------------------------------------------------------------||
B|----------------------------------------------------------------||
G|--------7-9-7-------7-9-7-------7-9-----------------------------||
D|------7-------7---7-------7---7---------------------------------||
A|----0-----------0-----------0-----------------------------------||
D|----------------------------------------------------------------||

chorus
GTI-Jim
E|----------------------------------------------------------------||
B|----------------------------------------------------------------||
G|----------------------------------------------------------------||
D|---5----4----3----2--------0-----------0------------------------||
A|---5-x6-4-x6-3-x6-2-x6-----0-----------0------------------------||
D|---5----4----3----2--------0-----------0------------------------||
GT2-Keely
E|---10/15--10/14--13--12------10-8---------10-8------------------||
B|----------------------------------10-----------10---------------||
G|----------------------------------------------------------------||
D|----------------------------------------------------------------||
A|----------------------------------------------------------------||
D|----------------------------------------------------------------||

Interlude?
GTI-Jim(here jim does some effects on his pedal board while keely plays for awhile then he ends with this)
E|--12-10-------12-10-------12-10-------12-10-12-13-12-13-17-17-17-17-17-17-16||
B|--------13-10-------13-10------13-10----------------------------------------||
G|----------------------------------------------------------------------------||
D|----------------------------------------------------------------------------||
A|----------------------------------------------------------------------------||
D|----------------------------------------------------------------------------||
GT2-Keely
E|---------------------------------------------------------------------------||
B|---------------------------------------------------------------------------||
G|-------2~------1--------------5~--------4----------------------------------||
D|-----------------2------------------------5--------------------------------||
A|----3--------2------2-------7--------5------5------------------------------||
D|--3--------2----------2---7--------5----------5----------------------------||

Bridge?
GTI-Jim
E|-----------------------------------------------------------------||
B|-----------------------------------------------------------------||
G|-----------------------------------------------------------------||
D|---12-----11----10----9------------------------------------------||
A|---12-x6--11-x6-10-x6-9-x6---------------------------------------||
D|---12-----11----10----9------------------------------------------||

GT2-Keely(tremelo picking)
E|-----------------------------------------------------------------||
B|--12-10----13-12----8-10-8-7-------------------------------------||
G|-----------------------------------------------------------------||
D|-----------------------------------------------------------------||
A|-----------------------------------------------------------------||
D|-----------------------------------------------------------------||


**Progression**
Intro x2
Verse x4
Chorus x1
Verse x4
Chorus (play ending twice)
Interlude x12 (lost count)
Bridge x4
Chorus x2 (first part twice, ending twice)


Добавлено: 11.08.2013
Другие материалы по этой песне:
  • Аккорды и текст

Страница создана 04.06.2012
http://primanota.ru/sparta/weather-the-storm-chords.htm
Привет, Гость.
Предлагаем пройти революционный курс по гитаре.
Подарок от PrimaNota.Ru, забирай!