PrimaNota.ru - самый крупный в мире бесплатный архив песенных текстов, аккордов, табулатур и нот


Sparta - Translations - текст песни, таба, видео

Регистрация Запомнить меня
Войти через:  Facebook Google Twitter Vk Yandex Mail.ru

Sparta - Translations - текст песни, таба, видео

Печатать
Просмотров: 148
Introduction
e---3--3--3--3--3--3--3--3--2--2--2--2--2--2--2--2--2--2--2--2--2--2--2--2-|
b-5--5--5--5--5--5--5--5--4--4--4--4--4--4--4--4--3--3--3--3--3--3--3--3---|
g--4--4--4--4--4--4--4--4--4--4--4--4--4--4--4--4--4--4--4--4--4--4--4--4--|
d--------------------------------------------------------------------------|
a--------------------------------------------------------------------------|
E--------------------------------------------------------------------------|

e---1--1--1--1--1--1--1--1-|
b-2--2--2--2--2--2--2--2---|
g--4--4--4--4--4--4--4--4--|
d--------------------------|
a--------------------------|
E--------------------------|

e---3--3--3--3--3--3--3--3--2--2--2--2--2--2--2--2--2--2--2--2--2--2--2--2-|
b-5--5--5--5--5--5--5--5--4--4--4--4--4--4--4--4--3--3--3--3--3--3--3--3---|
g--4--4--4--4--4--4--4--4--4--4--4--4--4--4--4--4--4--4--4--4--4--4--4--4--|
d--------------------------------------------------------------------------|
a--------------------------------------------------------------------------|
E--------------------------------------------------------------------------|

e---1--1--2--2--4--44-4-4--|
b-2--2--2--2--2--2-22-2-2--|
g--4--4--4--4--4--444-4-4--|
d--------------------------|
a--------------------------|
E--------------------------|
Main Riff
e------------------------------------------------------------------|
b------------------------------------------------------------------|
g-7-7776-6667-7776-6666-666-----6-666-------6-6664-444-4-4444-4444-|
d--------------------------9-999-----9-999x-4-4444-444-4-4444-4444-|
a-9-9999-9999-9999-9999-9999-9999-9999-999x-5-5555-555-5-5555-5555-|
e-7-7777-7777-7777-7777-7777-7777-7777-777x------------------------|

e----------|
b-66666666-|
g-66666666-|
d-66666666-|
a-44444444-|
e----------|x2
Chorus
e-7--7--7--7--6--6--6--6--5--5--5--5--4--4--4--4---|
b--7--7--7--7--7--7--7--7--5--5--5--5--5--5--5--5--|
g---7--7--7--7--6--6--6--6--5--5--5--5--4--4--4--4-|
d--------------------------------------------------|
a--------------------------------------------------|
e--------------------------------------------------|x2
Bridge
e-7--7~----9~----7~------|
b-10-10b12-12b14-10b12~--|
g------------------------|
d------------------------|
a------------------------|
e------------------------|
Main Riff
e------------------------------------------------------------------|
b------------------------------------------------------------------|
g-7-7776-6667-7776-6666-666-----6-666-------6-6664-444-4-4444-4444-|
d--------------------------9-999-----9-999x-4-4444-444-4-4444-4444-|
a-9-9999-9999-9999-9999-9999-9999-9999-999x-5-5555-555-5-5555-5555-|
e-7-7777-7777-7777-7777-7777-7777-7777-777x------------------------|

e----------|
b-66666666-|
g-66666666-|
d-66666666-|
a-44444444-|
e----------|x2
Chorus
e-7--7--7--7--6--6--6--6--5--5--5--5--4--4--4--4---|
b--7--7--7--7--7--7--7--7--5--5--5--5--5--5--5--5--|
g---7--7--7--7--6--6--6--6--5--5--5--5--4--4--4--4-|
d--------------------------------------------------|
a--------------------------------------------------|
e--------------------------------------------------|x4
Outro
e-7--7~----9~------7-7-----7-7---|
b-10-10b12-12b14~-7---7---7---7--|
g----------------8-----8-8-----8-|
d--------------------------------|
a--------------------------------|
e--------------------------------|

e-7~----9~------7-7-----7-7-7-7--|
b-10b12-12b14~-7---7---7--7-7-7--|
g-------------8-----8-8---8-8-8--|
d--------------------------------|
a--------------------------------|
e--------------------------------|

e---10--10---9-9------7--7--7-7h9-7---10--10---9-9------7--77-7-7-7-|
b--8---8---10---10---7--7--7---------8---8---10---10---7--7-7-7-7-7-|
g-9---9---7-------7-8--8--8--------89---9---7-------7-8--8--8-8-8-8-|
d-------------------------------------------------------------------|
a-------------------------------------------------------------------|
e-------------------------------------------------------------------|

e-9*------/14*--12*--11*----/7*--/9*------/14*--12*--11*----/7*--9*--10*---/7*|
b----------------------------------------------------------------------------|
g----------------------------------------------------------------------------|
d----------------------------------------------------------------------------|
a----------------------------------------------------------------------------|
e----------------------------------------------------------------------------|

e*---/14*--12*--14*^^^^^^^^^/19*----------19*------19*17*16*14*12*---|
b---------------------------------------17-----------------------0~--|
g--------------------------------------------------------------------|
d--------------------------------------------------------------------|
a--------------------------------------------------------------------|
e--------------------------------------------------------------------|

e-7~----9~-----7-----7-----7-----7-----|
b-10b12-12b14~-10b12-10b12-10b12-10b12-|
g--------------------------------------|
d--------------------------------------|
a--------------------------------------|
e--------------------------------------|
Добавлено: 02.10.2013
Другие материалы по этой песне:
  • Аккорды и текст

Страница создана 01.06.2012
http://primanota.ru/sparta/translations-chords.htm
Привет, Гость.
Предлагаем пройти революционный курс по гитаре.
Подарок от PrimaNota.Ru, забирай!