PrimaNota.ru - самый крупный в мире бесплатный архив песенных текстов, аккордов, табулатур и нот


Sparta - Mye - аккорды и текст, бас-таба, видео

Регистрация Запомнить меня
Войти через:  Facebook Google Twitter Vk Yandex Mail.ru

Sparta - Mye - аккорды и текст, бас-таба, видео

Печатать
Просмотров: 116
Mye
Sparta
Author/Artist: Sparta
Title: Mye
Album: Austere
Transcribed by: Angus MacLennan
Email: spangus@canada.com

good song cant wait for full album

-----------------------------|------------------------------------------------
------10--13--10--12--8-10---|------------------------------------------------
-----------------------------|------------------------------------------------
-----------------------------|------------------------------------------------
-----------------------------|------------------------------------------------
-----------------------------|------------------------------------------------
 verse^^repeat                                   chorus  (below)              

--------------------------------------------------------------|---------------
--------------------------------------------------------------|---------------
--------------------------------------------------------------|---------------
-----7--7--7--7--7--5--5--------------------------------------|---------------
-----5--5--5--5--5--3--3--7--7--7--7---3-3--3--3---7--7--7--7-|---------------
--------------------------5--5--5--5---1-1--1--1---5--5--5--5-|---------------
 thing at 1:58  and 3:21                                                      

----8---------------|---------------------------------------------------------
------5--8----------|---------------------------------------------------------
-----------5--7-----|---------------------------------------------------------
-----------------7--|---------------------------------------------------------
--------------------|---------------------------------------------------------
--------------------|---------------------------------------------------------
 thing at 3:00                                                                

--------0--5-0-----0--5--0----------------------------------------------------
----3-----------3-------------------------------------------------------------
------------------------------------------------------------------------------
------------------------------------------------------------------------------
------------------------------------------------------------------------------
------------------------------------------------------------------------------
                                                                              

 

            
Добавлено: 05.03.2012
Другие материалы по этой песне:
  • Аккорды и текст

Страница создана 05.03.2012
http://primanota.ru/sparta/mye-chords.htm
Привет, Гость.
Предлагаем пройти революционный курс по гитаре.
Подарок от PrimaNota.Ru, забирай!