PrimaNota.ru - самый крупный в мире бесплатный архив песенных текстов, аккордов, табулатур и нот


Sparta - La Cerca - текст песни, таба, видео

Регистрация Запомнить меня
Войти через:  Facebook Google Twitter Vk Yandex Mail.ru

Sparta - La Cerca - текст песни, таба, видео

Печатать
Просмотров: 114
La Cerca -by- Sparta

Intro - Both Guitars


1--------------------------------------|
2--99999999----------------------------|
3--99999999--11-11-11-11-11-11-11-11---|
4--77777777---9--9--9--9--9--9--9--9---|
5--99999999---7--7--7--7--7--7--7--7---|
6--------------------------------------|

1------------------|
2-9--11------------|
3-9--11------------|
4-7--9-------------|   -I play the intro like this, its easier
5-7--9-------------|
6------------------|

Verse - Guitar 1 -Jim

1-------------------12--------------------------|
2--xx-10--xx-10---------------------------------|
3--xx-9---xx-9---10----12---11--9--7--6--4------|
4--xx-7---xx-7--------------X---X--X--X--X------|  (x3)
5---------------------------9---7--5--4--2------|
6-----------------------------------------------|

Verse - Guitar 2 -Paul

1----------------------------------------------|
2---7----------7-------------------------------|
3--7--7-9-----7--7-9------11--9--7--6--4-------|
4-9-------7--9-------7----X---X--X--X--X-------|  (x3)
5-------------------------9---7--5--4--2-------|
6----------------------------------------------|

Chorus - Guitar 1 -Jim

1------------------|
2------------------|
3------------------|
4-9--7--5--4-------|   (x2) listen for exact strumming pattern
5-9--7--5--4-------|
6-7--5--3--2-------|

Chorus - Guitar 2 -Paul

1-------9----9-------9----9-----7---7--9-9-9-9-9-9-9-9-9---|
2-12-12---12---10-10---10---8-8---8------------------------|
3----------------------------------------------------------|  (x2)
4----------------------------------------------------------|
5----------------------------------------------------------|
6----------------------------------------------------------|

Play Intro again into the next verse.

Verse. (x3)

Chorus. (x4)

Play Intro again.

Verse. (x1)

Intro into bridge - Guitar 2 -Paul

1-------------17-15-14---|
2-15-14-10-12------------|
3------------------------|
4------------------------|
5------------------------|
6------------------------|

Bridge - Guitar 1 -Jim - I dont know what paul does for the bridge, it sounds like 
notes but its hard to hear...

1-----------------|
2-----------------|
3--4--0--------4--|
4--x--2--4--5--x--|  x4
5--2--2--4--5--2--|
6-----0--2--3-----|

E-----------------|
B-----------------|
G----------4------|
D--444444--x------|
A--444444--2------|
E--222222---------|

Solo after bridge - Guitar 2 - Paul - Jim (Gu1) plays the bottom power chords

1-------9----9-------9----9-----7---7--9-9-9-9-9-9----|
2-12-12---12---10-10---10---8-8---8-------------------|
3-----------------------------------------------------|
4-------------------------------------4-4-4-4-4-4-4---|
5-------------------------------------4-4-4-4-4-4-4---|
6-------------------------------------2-2-2-2-2-2-2---|

Chorus (x2)

New Chorus - Guitar 1 - Jim

1---------------------|
2---------------------|
3-4-4-4-4-------------|
4-4-4-4-4-9-7-5-4-----|  (x2)
5-2-2-2-2-9-7-5-4-----|
6---------7-5-3-2-----|

Guitar 2 - Paul

1-----------------9---9------9---9----7--7-9-9-9-9-9-9---|
2-----------12-12--12--10-10--10--8-8--8-----------------|
3-7-7-9-7------------------------------------------------|
4--------7-----------------------------------------------| (x2)
5--------------------------------------------------------|
6--------------------------------------------------------|

Outro

Guitar 1 - Jim

1---------|
2---------|
3---------|
4-9-7-5---|  (x3)
5-9-7-5---|
6-7-5-3---|

Guitar 2 - Paul

1-------9----9-------9----9-----7---7---|
2-12-12---12---10-10---10---8-8---8-----|
3---------------------------------------|  (x3)
4---------------------------------------|
5---------------------------------------|
6---------------------------------------|

Ending

Guitar 1- Jim

1------|
2------|
3------|
4-4----|  - Strum accordingly
5-4----|
6-2----|

Guitar 2- Paul

1-9-9-9-9-9-9---|
2---------------|
3---------------|
4---------------|
5---------------|
6---------------|

Thats it, please rate and or add coments or corrections. Sparta rules, support them.
Добавлено: 30.08.2013
Другие материалы по этой песне:
  • Аккорды и текст

Страница создана 10.05.2012
http://primanota.ru/sparta/la-cerca-chords.htm
Привет, Гость.
Предлагаем пройти революционный курс по гитаре.
Подарок от PrimaNota.Ru, забирай!