PrimaNota.ru - самый крупный в мире бесплатный архив песенных текстов, аккордов, табулатур и нот


Sparta - Guns Of Memorial Park - текст песни, таба, видео

Регистрация Запомнить меня
Войти через:  Facebook Google Twitter Vk Yandex Mail.ru

Sparta - Guns Of Memorial Park - текст песни, таба, видео

Печатать
Просмотров: 129
Band:Sparta
Song:Guns Of Memorial Park
Album:Porcelain
Tabber: Tom Fleming
email:flemingoboy@adelphia.net
Tuning: Drop D

I'm trying to tab all of the Sparta Tabs on Porcelain that haven't been tabbed on here 
 This is my first of the tabs that haven't been tabbed.

Listen for strumming patterns and rests.


Jim's Parts
Intro (with radio signals in background)Comes in at about 0:10 with synthesizer


|-----------------------------------------------|
|-----------------------------------------------|
|-----------------------------------------------|
|-----------------------------------------------|
|---3---3--3-(2x)---2---2--2----2---(drums come-|
|-5---5---5-------5---5---5---5---5-----in)-----|

Intro/Verse (after drums kick in)
|-----------5~-|
|-----------6~-|
|-----------5~-|
|-0~--------7~-|
|-0~--------5~-|
|-0~-----------|

Fill
|------------------------|
|------------------------|
|------------------------|
|-3--3--3--5--7--7--7--5-|
|-3--3--3--5--7--7--7--5-|
|-3--3--3--5--7--7--7--5-|
  .......     .......
  pm          pm

Pt. 2 Verse(If this is my valley...
|---5----------5----------|
|---6----------6----------|
|---5---7--5-4-5---7--7-7-|
|0--7---x--x-x-7---x--x-x-|
|0--5---5--3-2-5---5--5-5-|
|0------------------------|

Prechorus (very fast strumming)
|------------------------|
|------------------------|
|-7xx7xx7xx7xx7----------|
|-xxxxxxxxxxxxx----------|
|-5xx5xx5xx5xx5----------|
|------------------------|

Chorus
|-----------------------------------------------|
|-----------------------------------------------|
|-77777777----------77777777-12121212-1717-1616-|
|-77777777-22223333-77777777-x-x-x-x--x-x--x-x--|
|-55555555-22223333-55555555-10101010-1515-1414-|
|-55555555-55555533-55555555-0-0-0-0------------|
Listen for how long to play each of the chords.

Bridge-(Same as intro with drum solos in between, listen to song)

Paul's Parts
Intro
|---10---10--10-|
|-8----8----8---|
|---------------|
|---------------|
|---------------|
|---------------|

Intro/Verse
|-------------------------------|
|-------------------------------|
|---5---5--5-------4---4--4-----|
|-----------(2x)-----------(2x)-|
|-5---5---5------5---5---5------|
|-------------------------------|

Fill
|-171717--------151515--------------------|
|--------181818--------171717-17-18-17-15-|
|-----------------------------------------|
|-----------------------------------------|
|-----------------------------------------|

Pt. 2 Verse (If This Is My Valley...)(Not sure if this is right, he has some kindof 
on his guitar that's makin it hard for me to figure out.
|-10---5-----8---------10---5-----8---12--15-13----|
|-x----x-----x---8-6---x----x-----x---x---x--x--15-|
|-7----7---7-7---7-7-7-7----7---7-7---9---12-12-12-|
|----------0---------0----------0------------------|
|--------------------------------------------------|
|--------------------------------------------------|

Prechorus
|------------|
|------------|
|-14--141414-|
|-x---x-x-x--|
|-12--121212-|
|------------|

Chorus
|---------------------------------------8--8--88/10101010-|
|-10101010-8888------------------------6--6--6------------|
|---------------10101010-9h10p9-7-(3x)--------------------|
|---------------------------------------------------------|
|---------------------------------------------------------|
|---------------------------------------------------------|

Bridge-(Same as intro with drum solos in between, listen to song)


Song Order
Paul's Intro (4x)
Jim's Intro (1x w/Paul's intro still going)
Intro Verse (4x)
Fill (2x)
2 pt. of verse (1x)
Prechorus (2x for Jim, 1x for Paul)
Chorus (1x)
Intro Verse (4x)
Fill (2x)
2 pt. of verse (1x)
Prechorus (2x for Jim, 1x for Paul)
Chorus (2x)
Bridge
Fill (2x)
Prechorus (2x for Jim, 1x for Paul)
Chorus (2x)
Prechorus (4x for Jim, 2x for Paul)


I'm not sure this tab is all right so, email me at the email you see at the top of the 
if you have suggestions.
Добавлено: 23.06.2013
Другие материалы по этой песне:
  • Аккорды и текст

Страница создана 07.04.2012
http://primanota.ru/sparta/guns-of-memorial-park-chords.htm
Привет, Гость.
Предлагаем пройти революционный курс по гитаре.
Подарок от PrimaNota.Ru, забирай!