PrimaNota.ru - самый крупный в мире бесплатный архив песенных текстов, аккордов, табулатур и нот


Sparta - From Now To Never - текст песни, таба, видео

Регистрация Запомнить меня
Войти через:  Facebook Google Twitter Vk Yandex Mail.ru

Sparta - From Now To Never - текст песни, таба, видео

Печатать
Просмотров: 90
From Now to Never-Sparta
Album - Porcelain
Guitarists - Jim Ward (gu1), Paul Hinijos (gu2)

Guitar 1 - Jim -

Dropped D

Verses

e-----------------------------------|
b-----------------------------------|
g-18--16--19--18-141414141414-------|
d-x---x---x---x--x-x-x-x-x-x--------|
a-16--14--17--16-121212121212-------|
D-----------------------------------|

Next thing - this comes in for the first time at 0:40 right after
             verse riff

e-----------------------------------------|
b-----------------------------------------|
g-12-11-----------------------------------|
d-x--x---11-11--11-11--9-9--9-9--9999-----|
a-10-9---9--9---9--9---7-7--7-7--7777-----|
D--------9--9---9--9---7-7--7-7--7777-----|

Next riff - about 0:51 is when it first comes in
            "be ready be ready"

e----------------------------------------------|
b----------------------------------------------|
g-7~~~-----------------------------------------|
d-x~~~----99999-1212121212-999999-1212121212---|
a-5~~~----99999-1212121212-999999-1212121212---|
D-0~~~----99999-1212121212-999999-1212121212---|

Outro for the first part of the song

e---------------|
b---------------|
g-12-11---------|
d-x--x---0~~~---|
a-10-9---0~~~---|
D--------0~~~---|

Intro for next part of song

e---------------------|
b----------2-22-2-2---|
g-2-22-2-2-x-xx-x-x---|
d-0-00-0-0-0-00-0-0---|
a---------------------|
D---------------------|

Next Part 3:00

e-------------------|
b-------------------|
g-22222222----------|
d-22222222-0~~~-----|
a-00000000-0~~~-----|
D----------0~~~-----|

then these little riffs as it gets quiet

e----------------------------------|
b-10-9-7----------12-12~---14-14~--|
g--------9-7-----------------------|
d----------------------------------|
a----------------------------------|
D----------------------------------|

thats all for jim, he then plays piano for the rest of the song

Guitar 2 - Paul -
Dropped D tuning

Intro - he uses some effect, i dont know what tho

e----------------------|
b----------------------|
g-7---7---7----7---7---|
d-x---x---x----x---x---|
a-5---5---5----5---5---|
D-0---0---0----0---0---|

Verses

e---------------------|
b---------------------|
g-99999-6-7777777-----|
d-xxxxx-x-xxxxxxx-----|
a-77777-4-5555555-----|
D---------------------|


Next thing - this comes in for the first time at 0:40 right after
             verse riff

e--------------------------------------------------------------------|
b-------------------------------14-12------------------14-12---------|
g-12-11--------------------------------14-13-13-14-13--------14------|
d-x--x--9-9-9-9-7-7-7-7-7777--------------------------14--------14---|
a-10-9--9-9-9-9-7-7-7-7-7777-----------------------------------------|
D-------9-9-9-9-7-7-7-7-7777-----------------------------------------|

Next riff - about 0:51 is when it first comes in
            "be ready be ready"

e--------------------------------------------------------|
b--------------------------------------------------------|
g-7~~6-4--131313-141414-131313-141414-1616161616161616---|
d-x~~x-x--x-x-x--x-x-x--x-x-x--x-x-x--x-x-x-x-x-x-x-x----|
a-5~~4-2--111111-121212-111111-121212-1414141414141414---|
D-0~~----------------------------------------------------|

Outro for the first part of the song

e---------------|
b---------------|
g-12-11---------|
d-x--x---0~~~---|
a-10-9---0~~~---|
D--------0~~~---|

Intro for next part of song

e---------------------|
b----------2-22-2-2---|
g-2-22-2-2-x-xx-x-x---|
d-0-00-0-0-0-00-0-0---|
a---------------------|
D---------------------|

Next Part 3:00

e---------------------|
b---------------------|
g-99999---7777-9999---|
d-99999-0~xxxx-xxxx---|
a-77777-0~5555-7777---|
D-77777-0~------------|

then these riffs as it gets quiet and the girl starts speaking in french

e----------------------------------|
b-10-9-7----------12-12~---14-14~--|
g--------9-7-----------------------|
d----------------------------------|
a----------------------------------|
D----------------------------------|

guitar parts behind the piano  4:18 - 5:12

e------------------------------------------------------------------------|
b------------------------------------------------------------------------|
g-7/9-999999-77-99999-77--(repeat)--7/9--(he does this slide randomly)---|
d------------------------------------------------------------------------|
a------------------------------------------------------------------------|
D------------------------------------------------------------------------|

last time of that^^^^ (5:12)

e------------------------|
b------------------------|
g-777-999-121212/14~~~---|
d------------------------|
a------------------------|
D------------------------|

5:12 - 5:25

use slide

e----------------------------------------|
b----------------------------------------|
g-14-14-14/////-12-12/14-14-14~~///------|
d----------------------------------------|
a----------------------------------------|
D----------------------------------------|

5:26-5:44

e-------------------------------------------------------------------------------|
b---------------------------------------------20-20-20-19-19-19-17-17-17-15-15--|
g-16-16/18~~///-18-18-18~~///-(x2)---18-16-18-----------------------------------|
d-------------------------------------------------------------------------------|
a-------------------------------------------------------------------------------|
D-------------------------------------------------------------------------------|

5:45

e-------------------------------------|
b-------------------------------------|
g-6~~~--6---6-7-7-7-9-9-9-7-7-7-6~~~--|
d---------7---------------------------|
a-------------------------------------|
D-------------------------------------|

after that riff the rest of the riffs repeat until the end of the song
Добавлено: 12.07.2013
Другие материалы по этой песне:
  • Аккорды и текст

Страница создана 26.04.2012
http://primanota.ru/sparta/from-now-to-never-chords.htm
Привет, Гость.
Предлагаем пройти революционный курс по гитаре.
Подарок от PrimaNota.Ru, забирай!