PrimaNota.ru - самый крупный в мире бесплатный архив песенных текстов, аккордов, табулатур и нот


Sparta - Echodyne Harmonic - текст песни, таба, видео

Регистрация Запомнить меня
Войти через:  Facebook Google Twitter Vk Yandex Mail.ru

Sparta - Echodyne Harmonic - текст песни, таба, видео

Печатать
Просмотров: 115
Sparta - Echodyne Harmonic

Bridge D F C
Main Chord Progression A C F G

Lead Guitar
E |-1p0---0-1p0----0-1p0---0-1p0---0--5-5---------0-0--3-------3-----0-|
B |---------------------------------------6-6-3-3--------0---0---0-----|
G |-----2--------2-------2-------2-------------------------2-------2---|
D |--------------------------------------------------------------------|
A |--------------------------------------------------------------------|
E |--------------------------------------------------------------------|

Lead Guitar
E |----15----------15----15--------------15----12-13-13-12-12-13-13-12-12-|
B |-14----14-14-14----14----13-13-13--13----13----------------------------|
G |-----------------------------------------------------------------------|
D |-----------------------------------------------------------------------|
A |-----------------------------------------------------------------------|
E |-----------------------------------------------------------------------|

   -------------------------|
   -12-12-12-12-12-12-12-12-|
   -------------------------|
   -------------------------|
   -------------------------|
   -------------------------|

Rhythm Guitar
E |---12-12---12-12---12---12-12---12-12---12---13-13---13-13---13-|
B |----------------------------------------------------------------|
G |----------------------------------------------------------------|
D |----------------------------------------------------------------|
A |-0-------0-------0----0-------0-------0----0-------0-------0----|
E |----------------------------------------------------------------|

   ---13-13---15-15---12-|
   ----------------------|
   ----------------------|
   ----------------------|
   -0-------0-------0----|
   ----------------------|

Lead Guitar Solo [Listen for Timing]
E |--------------------------------------------------------------------|
B |--------------------------------------------------------------------|
G |--------------------------------------------------------------------|
D |--12-x8-10-x6-5-x2-8-x8-7-x8----------------------------------------|
A |--------------------------------------------------------------------|
E |--------------------------------------------------------------------|
Добавлено: 14.06.2013
Другие материалы по этой песне:
  • Аккорды и текст

Страница создана 21.05.2012
http://primanota.ru/sparta/echodyne-harmonic-chords.htm
Привет, Гость.
Предлагаем пройти революционный курс по гитаре.
Подарок от PrimaNota.Ru, забирай!