PrimaNota.ru - самый крупный в мире бесплатный архив песенных текстов, аккордов, табулатур и нот


Sparta - Death In The Family - текст песни, таба, видео

Регистрация Запомнить меня
Войти через:  Facebook Google Twitter Vk Yandex Mail.ru

Sparta - Death In The Family - текст песни, таба, видео

Печатать
Просмотров: 86
Song:Death In The Family
Band:Sparta
Album:Porcelain
E-mail:flemingoboy@adelphia.net
Tabber:Tom Fleming
Tuning: Standard


The majority of this tab is probably not the exact notes and chords, but the chords
and notes I have sound good in the song, even if they may not be the right ones.

Jim's Parts
Verse
|-------------------------------------------------|
|-------------------------------------------------|
|-xxx--12~--x--11~--xxx--1616161616--xx--16161616-|
|-xxx--x-~--x--x-~--xxx--x-x-x-x-x---xx--x-x-x-x--|
|-xxx--10~--x--9-~--xxx--1414141414--xx--14141414-|
|-------------------------------------------------|

Chorus (Strum these chords)
|-------------------------------------|
|----------7--------5--------7--------|
|-9--------x--------x--------x--------|
|-9--------7--------4--------x--------|
|-7--------5--------2--------7--------|
|-0--------0--------0--------5--------|

Bridge   (strum)
|------------------------------------------|
|------------------------------------------|
|----------9-------------------------9~----|
|-9--------9--------4--2--4--2--4-2--9~----|
|-9--------7--------4--2--4--2--4-2--7~----|
|-7-----------------2--0--2--0--2-0--0~----|
*Strum this chord 4 times            *
at the "They'll be glad
I came..." part of the
bridge and hold after
each strum.

End on (strumming whenever needed after the last chorus, til it ends.
|-----|
|-----|
|-9~--|
|-9~--|
|-7~--|
|-0~--|

Paul's Parts
Intro/Verse
|-7-----7-----7----------9----------------------------------------|
|-----------------10-----------10---9-----9-----9-----9-----9-----|
|---9-----9----------9-----9----------6-----6-----6-----6-----6---|
|-----9-----9---9------7-----7----7-----7-----7-----6-----7-----7-|
|-----------------------------------------------------------------|
|-----------------------------------------------------------------|

Chorus
|-----------19----------------------------------------------------|
|--------------------20-------19----------------------------------|
|-21-----21----21-21----21-21----21-12-11-12p11p9--12-11-12p11p9--|
|----21-----------------------------------------------------------|
|-----------------------------------------------------------------|
|-----------------------------------------------------------------|

 ------------------------|
 ------------------------|
 ---------------77777777-|
 -99999999-7777-xxxxxxxx-|
 -xxxxxxxx-xxxx-55555555-|
 -77777777-5555----------|

Bridge
|----------------------------------------------|
|----------------------------------------------|
|-----7-6------9-9-----9-666-444-666-444-66-44-|
|-7-9------7-9-----7-9---xxx-xxx-xxx-xxx-xx-xx-|
|------------------------444-222-444-222-44-22-|
|----------------------------------------------|

"They'll be glad I came..."
|-----------------------------------------------------|
|-------------------12--------------------------------|
|-11h12p11h12p11-12----12-14-12-11h12p11h12p11-11^-11-|
|-----------------------------------------------------|
|-----------------------------------------------------|
|-----------------------------------------------------|

Song Order
Intro (Paul,3x)
Verse (6x)
Chorus (2x)
Verse (6x)
Chorus (2x)
Bridge (4x)
"They'll be glad I came..." (2x Paul)
Chorus (2x)
"They'll be glad I came..." (2x Paul)

My e-mail is at the top.  Email me for suggestions or corrections.
Добавлено: 03.08.2013
Другие материалы по этой песне:
  • Аккорды и текст

Страница создана 12.05.2012
http://primanota.ru/sparta/death-in-the-family-chords.htm
Привет, Гость.
Предлагаем пройти революционный курс по гитаре.
Подарок от PrimaNota.Ru, забирай!