PrimaNota.ru - самый крупный в мире бесплатный архив песенных текстов, аккордов, табулатур и нот


Sparklehorse - See The Light - таба, видео

Регистрация Запомнить меня
Войти через:  Facebook Google Twitter Vk Yandex Mail.ru

Sparklehorse - See The Light - таба, видео

Печатать
Просмотров: 77
-------------------------------------------------------------------------------
                             See the Light - Sparklehorse
-------------------------------------------------------------------------------
Tabbed by: Blaike Mayer
E-mail:blaike.mayer@yahoo.com

Tuning: Standard (Capo 1st or 2nd Fret Chords related to capo)I play it on First Fret
Verse
e|---------------------------------------------------------------------------|
B|--ENTIRE SONG--------------------------------------------------------------|
G|-All-Picked----------------------------------------------------------------|
D|-2-----------1------2--------------2---------------------------------------|
A|-3---2-------2--2---3--2--------3----2--------------------------------------|
E|-3-------0----------3--------0p3r--------Repeat all till 1:44--------------|

Chorus
e|-0----------0------0----------0--------------------------------------------|
B|--2--3-------2--3---2--3------2--------------------------------------------|
G|-- 3-----------0-----3------0p3r--------Repeat and back to the verse-------|
D|-----------------------------------------until 2:40 where you play---------|
A|-----------------------------------------Chorus again---and That's it------|
E|---------------------------------------------------------------------------|




************************************

| /   slide up
| \   slide down
| h   hammer-on
| p   pull-off
| ~   vibrato
| +   harmonic
| x   Mute note
| b   Bend
| pb  Pre-bend
| br  Bend release
| pbr Pre-bend release
| brb Bend release bend

************************************
Добавлено: 12.05.2016
Другие материалы по этой песне:
  • Аккорды и текст

Страница создана 12.05.2016
http://primanota.ru/sparklehorse/see-light-chords.htm
Привет, Гость.
Предлагаем пройти революционный курс по гитаре.
Подарок от PrimaNota.Ru, забирай!