PrimaNota.ru - самый крупный в мире бесплатный архив песенных текстов, аккордов, табулатур и нот


Spandau Ballet - Highly Strung - текст песни, бас-таба, видео

Регистрация Запомнить меня
Войти через:  Facebook Google Twitter Vk Yandex Mail.ru

Spandau Ballet - Highly Strung - текст песни, бас-таба, видео

Печатать
Просмотров: 140
Авторы музыки: Gary Kemp
Авторы текста: Gary Kemp
Spandau Ballet - Highly Strung
- check out the following - I think I've captured most of the notes, but not all of the 
fills !!
http://www.youtube.com/watch?v=g22_rPR061k


Intro
G---------------|----------------|
D:--------------|----------------|
A:--------------|----------------|
E:-5---3-3-1--3-|-5--3--1--0-0-0-|

Verse
G--------------------------|----------------------|
D:-----7-----5-----3-----5-|-----7-----5----------|
A:-------------------------|----------------------|
E:-5-5---3-3---1-1---3-3---|-5-5---3-3---0--1-1-1-|

G--------------------------|------|---------------|
D:-----7-----5-----3-------|------|---------------|
A:-----------------------5-|------|-7-7-7-7-7-7-7-|
E:-5-5---3-3---1-1---3-3---|------|---------------|

Refrain
G----------------------------------------------|
D:---7-777-5-5---55---22----2222-3333-55--55---|
A:-------------55--55---22--------------55--55-|
E:-5-------------------------------------------|

G---------------------------------------|
D:---7-777-5-5---55---33--33---55--55---|
A:-------------55--55---33--33---55--55-|
E:-5------------------------------------|

Chorus
G--------------------------|-------------------|
D:-----7-----5-----3-----5-|-----7-----5-------|
A:-------------------------|-------------------|
E:-5-5---3-3---1-1---3-3---|-5-5---3-3---0---1-|

G--------------------------|---------------------|----|---|
D:-----7-----5-----3-----5-|-----7-----5---------|----|---|
A:-------------------------|---------------------|----|---|
E:-5-5---3-3---1-1---3-3---|-5-5---3-3---0---1---|----|-3-|


Outro
G------------------|
D:---7---5--3---5--|
A:--7---5--3---5---|
E:-5--3---1---3--5-|
Добавлено: 01.11.2013
Вам также может быть интересно:
Другие материалы по этой песне:
  • Аккорды и текст

Страница создана 02.07.2012
http://primanota.ru/spandau-ballet/highly-strung-chords.htm
Привет, Гость.
Предлагаем пройти революционный курс по гитаре.
Подарок от PrimaNota.Ru, забирай!