- самый крупный в мире бесплатный архив песенных текстов, аккордов, табулатур и нот

Spacemen 3 - Honey - аккорды и текст, видео

Регистрация Запомнить меня
Войти через:  Facebook Google Twitter Vk Yandex

Spacemen 3 - Honey - аккорды и текст, видео

Просмотров: 91
Spacemen 3
If you would like to contact me with
errors/corrections, send an email to*

Song: Honey
Performers: Spacemen 3
Album: Playing With Fire
Writer: Peter Kember

_Notes:_ When Playing With Fire begins, the listener
instantly is transported somewhere very different and
very beautiful. Whereas the opening drone reminds
vaguely of 'Take Me to the Other Side', the gently
wayfaring guitars soon obliterate that and a feeling
of hope, of gentle acceptance, follows. Soon it is
surrounding you, and 'Honey' is the all. This is one
of Sonic's greatest songs and probably the best on
Playing With Fire after 'Lord Can You Hear Me' - like
'Let Me Down Gently' it shows Sonic's equally adept at
creating mesmerizingly beautiful songs as he is songs
that are chaotically beautiful.

As was my understanding, since Mogwai was able to
cover it I reached the conclusion that it _is_ indeed
possible to tab out this song! Since I quickly
discovered it was only one chord, and as such would
not make a particularly exciting .crd file, I tabbed
out the whole thing. Enjoy!

_Effects:_ Chorus for 'McCabian' stylee, otherwise
this is one of the fewish Spacemen 3 songs I play
reasonably clean actually! :-) A good reverb never
hurts though.

_Tuning:_ This sounds standard to me! (EADGBe)

_Rhythm:_ This song is played in 4/4 time.

There is only one chord used throughout the song (A -
577655) and the entire song is constructed of a few
seperate riffs/power chord sequences.

 - = 1/8 note
 ~ = Trill
5h6= Hammer on
6p5= Pull off
 \ = Slide down
 / = Slide up


e --------------------
B --------------------
G 2-2-2-2-2-2-2-2-2-2-
D 2-2-2-2-2-2-2-2-2-2-
A 2-2-2-2-2-2-2-2-2-2-  (with heavy sustain and
E --------------------

Riff #1
e ---------------------------------------
B ---------------------------------------
G ---------------------------------------
D 7-7-7-7-7-7-7-7h9-\-4/7---------9-\-4/7
A 0-0-0-0-0-0-0-0-0---0-0-0-0-0-0-0---0-0
E ---------------------------------------

Verse Riff
e -------------------------------
B -------------------------------
G 6-6----------------------------
D ----9-9-9-9-9-9-9-9-9\4-7-9\4-7-
A 0-0-0-0-0-0-0-0-0-0-0-0-0-0-0-0-
E --------------------------------

Riff #2
e ------------------------
B ------------------------
G 7-7-7-7\6-6-6-6---------
D ----------------9-9-9\7- 
A 0-0-0-0-0-0-0-0-0-0-0-0-
E ------------------------ x3

Song structure:

Riff #1 x2
Riff #2 x2
Verse Riff (honey won't you take me...) x2
Riff #2    
Riff #1 x2
Verse Riff (honey won't you take me...) x2
Riff #2 (listen to the winds wistling through...) x2

That all!

You can visit my Spiritualized site at
for more information about this band. There is also a
guitar tabs section where things like this are

Comments or questions should go to

Thanks again...
Добавлено: 24.07.2013
Другие материалы по этой песне:
  • Аккорды и текст

Страница создана 24.07.2013
Привет, Гость.
Предлагаем пройти революционный курс по гитаре.
Подарок от PrimaNota.Ru, забирай!