PrimaNota.ru - самый крупный в мире бесплатный архив песенных текстов, аккордов, табулатур и нот


Spacehog - Deceit - аккорды и текст, видео

Регистрация Запомнить меня
Войти через:  Facebook Google Twitter Vk Yandex Mail.ru

Spacehog - Deceit - аккорды и текст, видео

Печатать
Просмотров: 80
Уроки эстрадного вокала в Санкт-Петербурге
Deceit
Spacehog
-------------------------------------------------------------------------------
                             Deceit - Spacehog
-------------------------------------------------------------------------------
Tabbed by: YeGeWen
E-mail: calyeager@yahoo.com

Tuning: Standard

Intro

Chords: C#m E G#m E Cm E G#

e|-------------------------|        
B|-------9-----------------|
G|---------9---------------|
D|-----------9-------------|    x6    
A|-------------------------|
E|-------------------------|

Verse

C#m
Oh, what webs we unfold
E
at the end of the world
G#m                   E
Life was cruel at the end of your rifle

C#m
So with pride on my side
E
and plans to bury you alive 
G#
with the carnivores, clowns, and lions

C#m
all the games I had rigged
E
like the suicide bridge
G#m                                     E
where I'd take you and wait for a while

C#m
all the sad long goodbyes
E
and the fake alibis
G#
you buy new or used without passion

Bridge

E G#m A E

[Vocalization]

e|-------------------------------|
B|--9-----9-----10------9--------|
G|-----9-----9------9------9-----|          x2
D|-------------------------------|
A|-------------------------------|
E|-------------------------------|

e|-------------------------------|
B|--9-----9-----10------9--------|
G|-----8-----8------8------8-----|          x2
D|-------------------------------|
A|-------------------------------|
E|-------------------------------|

e|--4-----4-----5-------4--------|
B|-------------------------------|
G|-----2-----2------2------2-----|          x2
D|-------------------------------|
A|-------------------------------|
E|-------------------------------|

e|-------------------------------|
B|-------------------------------|
G|--1-----1---------2------1-----|          x2
D|-----2-------2--------2-----2--|
A|-------------------------------|
E|-------------------------------|


[Vocalization 2]

C#m E G#

Verse 2

C#m
Well you are by one 
E
as your poor souls awake,
G#m                                      E
But still no sound their lips to make.

C#m
As our twisted souls 
E
rise from cold, old Earth.
G#
These are fruits of all our work.

E G#m A E
[Vocalization]

E
So I wrote "Goodbye" 
on the mirror by the light.
G#m
It was thundering and lighting.
It was the middle of the night.
A                                                 E
These are the roads that we're already been down?

E
In your imagination 
you see a face for love.
G#m
Someone to come along with, 
instead of coming on and on.
A                                  E
Is there ever anybody out there?

E
But your mummy didn't love you
and your daddy didn't care.
G#m
They left you with a good friend
left you hanging in the air.
A                                E
Was there was anybody out there?


[Vocalization 2]

C#m
Now all those frozen hours
G#m 
melted into time.
A
Left with the reflection
E 
in the mirror of your mind.

C#m
Sometimes you hear voices
you hear voices in your hall.
G#m
You wake up and you're screaming 'cause
There's no one there at all.
A
These are the roads that we're already been down.
E
These are the roads that we're already been down.

E
A horrible hardened soul.
G#m
Got plenty of money, though 
A                                     E
what it's worth you just don't know.

E
So listen to me now
G#m
This could be our shining hour
A                            E
based on all that mad deceit.

E
But horrible hearts exposed 
G#m
watching as the money goes.
A                                         E
Still what it's worth you just don't know

F#m                        B
but I deceived you so long.
E
Bye Bye.

************************************

| /   slide up
| \   slide down
| h   hammer-on
| p   pull-off
| ~   vibrato
| +   harmonic
| x   Mute note
| b   Bend
| pb  Pre-bend
| br  Bend release
| pbr Pre-bend release
| brb Bend release bend

************************************
Добавлено: 26.07.2015
Другие материалы по этой песне:
  • Аккорды и текст

Страница создана 26.07.2015
http://primanota.ru/spacehog/deceit-chords.htm
Привет, Гость.
Предлагаем пройти революционный курс по гитаре.
Подарок от PrimaNota.Ru, забирай!