PrimaNota.ru - самый крупный в мире бесплатный архив песенных текстов, аккордов, табулатур и нот


Southside Johnny & The Asbury Jukes - Love On The Wrong Side Of Town - текст песни, бас-таба, видео

Регистрация Запомнить меня
Войти через:  Facebook Google Twitter Vk Yandex Mail.ru

Southside Johnny & The Asbury Jukes - Love On The Wrong Side Of Town - текст песни, бас-таба, видео

Печатать
Просмотров: 73
Авторы музыки: Bruce Springsteen, Steven Van Zandt
Авторы текста: Bruce Springsteen, Steven Van Zandt


Song: Love On The Wrong Side Of Town
Artist: Southside Johnny And The Asbury Jukes
Album: This Time It's For Real
(the one, the only, thank gawd...) =)
Tabbed by: nataliemarkova@hotmail.com
Date: May 2004

Intro: No bass part

Verse/Instrumental (start when SSJ sings)
 (0.16)
G|---------|---------|---------|---------|
D|-5----55-|------5--|------55-|------5--|
A|----5----|----5--4-|----5----|----5--4-|
E|---------|-33------|-33------|-33------|
   1 2 3 4   1 2 3 4
G|---------|---------|---------|---------|
D|------55-|------5--|------55-|------5--|
A|----5----|----5--4-|----5----|----5--4-|
E|-33------|-33------|-33------|-33------|


G|-----5---|-----5---|-----5----|-----5----|
D|---5---5-|---5---5-|---5---5--|---5---5--|
A|-3-------|-3-------|-3--------|-3--------|
E|---------|---------|----------|----------|
   1 2 3 4
G|-5420----|
D|-----4-0-|
A|---------|
E|---------|

Chorus
G|---------|---------|---------|---------|
D|---------|---55r5--|---------|---55r5--|
A|---------|-------3-|---------|-------3-|
E|-3--3-33-|-3-------|-3--3-33-|3--------|
   1 2 3 4
G|---------|---------|---------|---------|
D|-------2-|---0-----|---------|---------|
A|-0-2-3---|-3-------|---(no bass line)--|
E|---------|---------|---------|---------|
                            "...Side Of Town"

 Alt Chorus (change of key after instrumental)
G|---------|---------|---------|---------|
D|---------|---66r6--|---------|---66r6--|
A|---------|-------4-|---------|-------4-|
E|-4--4-44-|-4-------|-4--4-44-|-4-------|
   1 2 3 4
G|---------|---------|------88-|---------|
D|-------3-|----8-88-|-6-4-----|(no bass)|
A|-1-3-4---|-46------|---------|---------|
E|---------|---------|---------|---------|
                           "...Side of Town" 

(2.40) Ending - repeat until fade (2.5X)
G |---------|---------|---------|---------|
D |-----66--|-----66--|-----66--|-----66--|
A |-6-8-----|-6-8-----|-6-8-----|-6-8-----|
E |---------|---------|---------|---------|
    1 2 3 4 

Structure:
Verse
Chorus 
Verse
Chorus 
Instrumental (Verse bassline)
(Change of key )
Alt Chorus
Ending

I'll be compiling all the tabs I transcribe at http://members.fortunecity.com/njbasstabs, so 
feel free to stop by 



Добавлено: 03.08.2013
Другие материалы по этой песне:
  • Аккорды и текст

Страница создана 15.06.2012
http://primanota.ru/southside-johnny-and-the-asbury-jukes/love-on-the-wrong-side-of-town-chords.htm
Привет, Гость.
Предлагаем пройти революционный курс по гитаре.
Подарок от PrimaNota.Ru, забирай!