PrimaNota.ru - самый крупный в мире бесплатный архив песенных текстов, аккордов, табулатур и нот


Southside Johnny & The Asbury Jukes - Hearts Of Stone - текст песни, таба, видео

Регистрация Запомнить меня
Войти через:  Facebook Google Twitter Vk Yandex Mail.ru

Southside Johnny & The Asbury Jukes - Hearts Of Stone - текст песни, таба, видео

Печатать
Просмотров: 65
Авторы музыки: Bruce Springsteen
Авторы текста: Bruce Springsteen
"Hearts Of Stone"

Southside Johnny And The Asbury Jukes
 >From tha album "Hearts Of Stone"
Words & Music by Bruce Springsteen
Transcribed by Gareth Thomas  gareth_wales@hotmail.com>



Order of song:

Intro
Verse 1
Chorus 1
Pre-Verse Fill
Verse 2
Chorus 2
Solo
Pre-Chorus
Chorus 3
Coda

INTRO:

|---------------------------------------------------------|
|--------10-11-11B(13)R(11)-10-----13-13B(15)-------------|
|-10---12---------------------12-------------10--10H12P10-|
|---------------------------------------------------------|
|---------------------------------------------------------|
|---------------------------------------------------------|

	  ~~~~~~~~~~~
|-----------------------|
|------10-11-10---------|
|-10H12---------12-10---|
|--------------------\--|
|-----------------------|
|-----------------------|


VERSE 1:

|F	|Am     |Bb     |C      |
|F	|Am     |Bb	|C      |
|Dm	|C      |Dm	|Bb     |C       ||



CHORUS 1:

|F  Bb |F    |Bb  C |F     |
|Bb*   |C    |F     |C     |
				* Could be Gm - not sure


PRE-VERSE FILL:

|-----------------------------------------|
|-----------------------------------------|	- Near enough
|--------------------------10-12--12B(14)-|	  anyway!
|---------3--5/7/10--10/12----------------|
|-3-3-3/5---------------------------------|
|-----------------------------------------|

VERSE 2:  (Chords as Verse 1)

There are three fills during this verse, which go something like...

	FILL 1:
	|---------------------------|
	|-10-11-10-------------10---|
	|----------12-10-10-12------|
	|---------------------------|
	|---------------------------|
	|---------------------------|

	FILL 2:
	|---------------------------------------------|
	|-13B(15)-13-11-10-----------10---------------|
	|------------------12--10-12----12-10---------|
	|-------------------------------------12-10---|
	|---------------------------------------------|
	|---------------------------------------------|

	FILL 3:  ~~~~~
	|--------------|
	|-------10-----|
	|-10-12--------|
	|--------------|
	|--------------|
	|--------------|



CHORUS 2: (Chords as Chorus 1)

There are two fills during this chorus...

	FILL 4:
	|---------------------|
	|-10-11--10-----------|
	|------------10-------|
	|---------------10----|
	|---------------------|
	|---------------------|

	FILL 5:
	|---------------------------------|
	|-------10/13-13-13-15-10---------|
	|-10-10-------------------12------|
	|---------------------------------|
	|---------------------------------|
	|---------------------------------|


SOLO:	(Chords as Verse)

|-----------------------------------------------------|
|-----------------------------------------------------|
|---10--12-12B(14)R(12)-9------------------------9-10-|
|-10----------------------10H12--------8-10-10/12-----|
|------------------------------12---8-8---------------|
|-----------------------------------------------------|

|---------------------------------------------------|
|--------------------11-10---------13B(15)-13-11-10-|
|---9--10--10/12-----------12-10--------------------|
|-10-10--10--------10-------------------------------|
|---------------------------------------------------|
|---------------------------------------------------|

|-------13B(15)-13--------13(15)-13-13/15-15-13--|
|-10-10-------------10-10------------------------|
|------------------------------------------------|
|------------------------------------------------|
|------------------------------------------------|
|------------------------------------------------|

|-15B(17)-(17)-(17)R(15)-13-15-17B(18)-17-15-13-|
|-----------------------------------------------|
|-----------------------------------------------|
|-----------------------------------------------|
|-----------------------------------------------|
|-----------------------------------------------|


PRE-CHORUS:

|Dm     |C     |Dm    |Bb     |C    |     ||

Again, the there are 3 fills during this short section...

	FILL 6:
	|-13B(15)R(13)-12-----|
	|-----------------15--|
	|---------------------|
	|---------------------|
	|---------------------|
	|---------------------|

	FILL 7:
	|----------------------------------|
	|-----------------13---------------|
	|-------10-12B(14)--(14)R(12)-10---|
	|-10/12----------------------------|
	|----------------------------------|
	|----------------------------------|

	FILL 8:
	|-----------------------------|
	|-------10-12/13-13-15-10-----|
	|-10-12-------------------12--|
	|-----------------------------| ....
	|-----------------------------|
	|-----------------------------|

	    |----------------------13-----------13-15-15B(17)--|
	    |-------10-12/13-13-15----15-13--15----------------|
	    |-10-12--------------------------------------------|
	....|--------------------------------------------------|
	    |--------------------------------------------------|
	    |--------------------------------------------------|


CHORUS 3: (Chords as Chorus 1&2)

Again, another fill...

	FILL 9:
	|-----------------------------------------|
	|-------13B(15)-13-11-10-11-13--11-10-----|
	|-10-10-------------------------------12--|
	|-----------------------------------------|
	|-----------------------------------------|
	|-----------------------------------------|

CODA (last 2 lines):

|Bb	|C     |F      |Bb Am C F ||




NOTATION LEGEND:

13B(15)		 : Play 13th fret, bend to 15th
13B(15)R(13)	 : Play 13th fret, bend to 15th, release 					to 13th
13B(15)-(15)-	 : Play 13th fret, bend to 15th, repick 					bent note
13/15		 : Play 13th fret, slide to 15th
13H15		 : Play 13th fret, hammer-on to 15th
15P13		 : Play 15th fret, pull-off to 13th
~~~~~		 : Finger vibrato

CHORDS:
F:  133211
Am: X02210
Bb: X13331
C:  X32010
Dm: XX0231
     
Добавлено: 06.09.2013
Другие материалы по этой песне:
  • Аккорды и текст

Страница создана 08.06.2012
http://primanota.ru/southside-johnny-and-the-asbury-jukes/hearts-of-stone-chords.htm
Привет, Гость.
Предлагаем пройти революционный курс по гитаре.
Подарок от PrimaNota.Ru, забирай!