PrimaNota.ru - самый крупный в мире бесплатный архив песенных текстов, аккордов, табулатур и нот


South Park (OST) - Quiero Vivir En South Park - таба, видео

Регистрация Запомнить меня
Войти через:  Facebook Google Twitter Vk Yandex Mail.ru

South Park (OST) - Quiero Vivir En South Park - таба, видео

Печатать
Просмотров: 39
quiero vivir en south park


south park


TRANSCRIBED BY RUDY GUZMAN


guzman_84@hotmail.com





tune 1 step down


   quiero vivir en south park       no paro de pensar en que            
eb:-2------------------------------------------------------2-|
Bb:-3----------------------2-------------------------2-----3-|
Gb:-2----------------------2-------------------------2-----2-|
Db:-0----------------------2----4-4-4-4-4-4-4-4-4-4--2-----0-|
Ab:------------------------0----4-4-4-4-4-4-4-4-4-4--0-------|
Eb:-----------------------------2-2-2-2-2-2-2-2-2-2----------|

  en que cartman vomito...
eb:-------------------------------------|
Bb:-------------------------------------|
Gb:-----------------------2-2-4-2-------|
Db:------2-2-4-2-2-2-4-2--0-0-0-0-0-----|
Ab:------0-0-0-0-0-0-0-0------------3-2-|
Eb:-3/5---------------------------------|

eb:--------------------------------|
Bb:--------------------------------|
Gb:------------------2-2-4-2-------|
Db:-2-2-4-2-2-2-4-2--0-0-0-0-0-----|
Ab:-0-0-0-0-0-0-0-0------------3-2-|
Eb:--------------------------------|

  en genialo...
  gt1
eb:---------------------------------------------------------------|
Bb:---------------------------------------------------------------|
Gb:-------------------------------2-2-4-2-2-4-2-------------------|
Db:-2-2-4-2-2-4-2-----------------0-0-0-0-0-0-0-------------------|
Ab:-0-0-0-0-0-0-0--5-5-7-5-5-7-5-----------------2-2-4-2-2--4-2-0-|
Eb:----------------3-3-3-3-3-3-3-----------------0-0-0-0-0--------|
  gt2
eb:-----------------------2-2-2-2-2--------------|
Bb:-2-2-2-2-2-------------3-3-3-3-3--------------|
Gb:-2-2-2-2-2--4-4-4-4-4--2-2-2-2-2--1-1-1-1-1-1-|
Db:-2-2-2-2-2--5-5-5-5-5--0-0-0-0-0--2-2-2-2-2-2-|
Ab:-0-0-0-0-0--5-5-5-5-5-------------2-2-2-2-2-2-|
Eb:------------3-3-3-3-3-------------0-0-0-0-0-0-|

  no paro de pensar...         
eb:--------------------------------|
Bb:--------------------------------|
Gb:------------------2-2-4-2-------|
Db:-2-2-4-2-2-2-4-2--0-0-0-0-0-----|
Ab:-0-0-0-0-0-0-0-0------------3-2-|
Eb:--------------------------------|

  en seguir al...
eb:------------------------------|
Bb:---------------------3-3------|
Gb:------------------2--2-2------|
Db:-2-2-4-2-2-2-4-2--0--0-0------|
Ab:-0-0-0-0-0-0-0-0----------3-2-|
Eb:------------------------------|
 
  en la navidad...
  gt1
eb:-------------------------------------------------------------------------------------------------|
Bb:-------------------------------------------------------------------------------------------------|
Gb:-------------------------------2-2-4-2-2-4-2-----------------------------------------------------|
Db:-2-2-4-2-2-4-2-----------------0-0-0-0-0-0-0-----------------------------------------------------|
Ab:-0-0-0-0-0-0-0--5-5-7-5-5-7-5-----------------2--2-4-2--5-2--4-2--2-4-2--5-2--4-2--2-4-2--5-2--4-|
Eb:----------------3-3-3-3-3-3-3-----------------0--0-0-0--0-0--0-0--0-0-0--0-0--0-0--0-0-0--0-0--0-|
  gt2
eb:-----------------------2-2-2-2-2-----------------------------------------------------|
Bb:-2-2-2-2-2-------------3-3-3-3-3-----------------------------------------------------|
Gb:-2-2-2-2-2--4-4-4-4-4--2-2-2-2-2-----------------------------------------------------|
Db:-2-2-2-2-2--5-5-5-5-5--0-0-0-0-0-----------------------------------------------------|
Ab:-0-0-0-0-0--5-5-5-5-5-------------2--2-4-2--5-2--4-2--2-4-2--5-2--4-2--2-4-2--5-2--4-|
Eb:------------3-3-3-3-3-------------0--0-0-0--0-0--0-0--0-0-0--0-0--0-0--0-0-0--0-0--0-|
  gt3
eb:------------------------------|
Bb:------------------------------|
Gb:-14~~~--12~~~~--11~~~~-9~~~~--|
Db:------------------------------|
Ab:------------------------------|
Eb:------------------------------|

  quiero vivir en south park oh oh...
   gt1
eb:------------------------------------------------------------|
Bb:------------------------------------------------------------|
Gb:-2-2-4-2-2-4-2----------------------------------------------|
Db:-0-0-0-0-0-0-0--2-2-4-2-2-4-2-----------------2-2-4-2-2-4-2-|
Ab:----------------0-0-0-0-0-0-0--4-4-6-4-4-6-4--0-0-0-0-0-0-0-|
Eb:-------------------------------2-2-2-2-2-2-2----------------|
   gt2
eb:-2-2-2-2-2-2-2-2-2-2--------------------------------------|
Bb:-3-3-3-3-3-3-3-3-3-3--2-2-2-2-2-2-------------2-2-2-2-2-2-|
Gb:-2-2-2-2-2-2-2-2-2-2--2-2-2-2-2-2--3-3-3-3-3--2-2-2-2-2-2-|
Db:-0-0-0-0-0-0-0-0-0-0--2-2-2-2-2-2--4-4-4-4-4--2-2-2-2-2-2-|
Ab:----------------------0-0-0-0-0-0--4-4-4-4-4--0-0-0-0-0-0-|
Eb:-----------------------------------2-2-2-2-2--------------|
   gt3
eb:------------------------------------------------------------|
Bb:------------------------------------------------------------|
Gb:----------------------------5-6-5---------------------------|
Db:----------------------------------8-6-----------------------|
Ab:------------------------------------------------------------|
Eb:------------------------------------------------------------|
  
  quiero todo south park...
   gt1
eb:--------------------------------------------------------|
Bb:--------------------------------------------------------|
Gb:-2-2-4-2-2-4-2--------------------------------2-2-2-2-2-|
Db:-0-0-0-0-0-0-0--2-2-4-2-2-4-2-----------------2-2-2-2-2-|
Ab:----------------0-0-0-0-0-0-0--4-4-6-4-4-6-4--0-0-0-0-0-|
Eb:-------------------------------2-2-2-2-2-2-2------------|
   gt2
eb:-2-2-2-2-2-2-2-2-2-2------------------------------------|
Bb:-3-3-3-3-3-3-3-3-3-3--2-2-2-2-2-2-----------------------|
Gb:-2-2-2-2-2-2-2-2-2-2--2-2-2-2-2-2--3-3-3-3-3--2-2-2-2-2-|
Db:-0-0-0-0-0-0-0-0-0-0--2-2-2-2-2-2--4-4-4-4-4--2-2-2-2-2-|
Ab:----------------------0-0-0-0-0-0--4-4-4-4-4--0-0-0-0-0-|
Eb:-----------------------------------2-2-2-2-2------------|
   gt3
eb:------------------------------------------------------------|
Bb:------------------------------------------------------------|
Gb:----------------------------5-6-5---------------------------|
Db:----------------------------------8-6-----------------------|
Ab:------------------------------------------------------------|
Eb:------------------------------------------------------------|
  
  en si garrison...            
eb:--------------------------------|
Bb:--------------------------------|
Gb:------------------2-2-4-2-------|
Db:-2-2-4-2-2-2-4-2--0-0-0-0-0-----|
Ab:-0-0-0-0-0-0-0-0------------3-2-|
Eb:--------------------------------|

  el que libero...
eb:------------------------------|
Bb:---------------------3-3------|
Gb:------------------2--2-2------|
Db:-2-2-4-2-2-2-4-2--0--0-0------|
Ab:-0-0-0-0-0-0-0-0----------3-2-|
Eb:------------------------------|

  en aquella...
  gt1
eb:---------------------------------------------------------------|
Bb:---------------------------------------------------------------|
Gb:-------------------------------2-2-4-2-2-4-2-------------------|
Db:-2-2-4-2-2-4-2-----------------0-0-0-0-0-0-0-------------------|
Ab:-0-0-0-0-0-0-0--5-5-7-5-5-7-5-----------------2-2-4-2-2--4-2-0-|
Eb:----------------3-3-3-3-3-3-3-----------------0-0-0-0-0--------|
  gt2
eb:-----------------------2-2-2-2-2--------------|
Bb:-2-2-2-2-2-------------3-3-3-3-3--------------|
Gb:-2-2-2-2-2--4-4-4-4-4--2-2-2-2-2--1-1-1-1-1-1-|
Db:-2-2-2-2-2--5-5-5-5-5--0-0-0-0-0--2-2-2-2-2-2-|
Ab:-0-0-0-0-0--5-5-5-5-5-------------2-2-2-2-2-2-|
Eb:------------3-3-3-3-3-------------0-0-0-0-0-0-|

  gt1 quiero tocar con...     x2
eb:--------------------------------|
Bb:--------------------------------|
Gb:------------------2-2-4-2-------|
Db:-2-2-4-2-2-2-4-2--0-0-0-0-0-----|
Ab:-0-0-0-0-0-0-0-0------------3-2-|
Eb:--------------------------------|
  gt2
eb:------------------17b~~-------17~~~--|
Bb:------------------------20p17--------|
Gb:-------------------------------------|
Db:-------------------------------------|
Ab:-------------------------------------|
Eb:-------------------------------------|

   y cuantas veces me rei...
  gt1
eb:-------------------------------------------------------------------------------------------------|
Bb:-------------------------------------------------------------------------------------------------|
Gb:-------------------------------2-2-4-2-2-4-2-----------------------------------------------------|
Db:-2-2-4-2-2-4-2-----------------0-0-0-0-0-0-0-----------------------------------------------------|
Ab:-0-0-0-0-0-0-0--5-5-7-5-5-7-5-----------------2--2-4-2--5-2--4-2--2-4-2--5-2--4-2--2-4-2--5-2--4-|
Eb:----------------3-3-3-3-3-3-3-----------------0--0-0-0--0-0--0-0--0-0-0--0-0--0-0--0-0-0--0-0--0-|
  gt2
eb:-----------------------2-2-2-2-2-----------------------------------------------------|
Bb:-2-2-2-2-2-------------3-3-3-3-3-----------------------------------------------------|
Gb:-2-2-2-2-2--4-4-4-4-4--2-2-2-2-2-----------------------------------------------------|
Db:-2-2-2-2-2--5-5-5-5-5--0-0-0-0-0-----------------------------------------------------|
Ab:-0-0-0-0-0--5-5-5-5-5-------------2--2-4-2--5-2--4-2--2-4-2--5-2--4-2--2-4-2--5-2--4-|
Eb:------------3-3-3-3-3-------------0--0-0-0--0-0--0-0--0-0-0--0-0--0-0--0-0-0--0-0--0-|
  gt3
eb:------------------------------|
Bb:------------------------------|
Gb:-14~~~--12~~~~--11~~~~-9~~~~--|
Db:------------------------------|
Ab:------------------------------|
Eb:------------------------------|

  quiero vivir en south park oh oh...
   gt1
eb:------------------------------------------------------------|
Bb:------------------------------------------------------------|
Gb:-2-2-4-2-2-4-2----------------------------------------------|
Db:-0-0-0-0-0-0-0--2-2-4-2-2-4-2-----------------2-2-4-2-2-4-2-|
Ab:----------------0-0-0-0-0-0-0--4-4-6-4-4-6-4--0-0-0-0-0-0-0-|
Eb:-------------------------------2-2-2-2-2-2-2----------------|
   gt2
eb:-2-2-2-2-2-2-2-2-2-2--------------------------------------|
Bb:-3-3-3-3-3-3-3-3-3-3--2-2-2-2-2-2-------------2-2-2-2-2-2-|
Gb:-2-2-2-2-2-2-2-2-2-2--2-2-2-2-2-2--3-3-3-3-3--2-2-2-2-2-2-|
Db:-0-0-0-0-0-0-0-0-0-0--2-2-2-2-2-2--4-4-4-4-4--2-2-2-2-2-2-|
Ab:----------------------0-0-0-0-0-0--4-4-4-4-4--0-0-0-0-0-0-|
Eb:-----------------------------------2-2-2-2-2--------------|
   gt3
eb:------------------------------------------------------------|
Bb:------------------------------------------------------------|
Gb:----------------------------5-6-5---------------------------|
Db:----------------------------------8-6-----------------------|
Ab:------------------------------------------------------------|
Eb:------------------------------------------------------------|
  
  quiero todo south park...
   gt1
eb:--------------------------------------------------------|
Bb:--------------------------------------------------------|
Gb:-2-2-4-2-2-4-2--------------------------------2-2-2-2-2-|
Db:-0-0-0-0-0-0-0--2-2-4-2-2-4-2-----------------2-2-2-2-2-|
Ab:----------------0-0-0-0-0-0-0--4-4-6-4-4-6-4--0-0-0-0-0-|
Eb:-------------------------------2-2-2-2-2-2-2------------|
   gt2
eb:-2-2-2-2-2-2-2-2-2-2------------------------------------|
Bb:-3-3-3-3-3-3-3-3-3-3--2-2-2-2-2-2-----------------------|
Gb:-2-2-2-2-2-2-2-2-2-2--2-2-2-2-2-2--3-3-3-3-3--2-2-2-2-2-|
Db:-0-0-0-0-0-0-0-0-0-0--2-2-2-2-2-2--4-4-4-4-4--2-2-2-2-2-|
Ab:----------------------0-0-0-0-0-0--4-4-4-4-4--0-0-0-0-0-|
Eb:-----------------------------------2-2-2-2-2------------|
   gt3
eb:------------------------------------------------------------|
Bb:------------------------------------------------------------|
Gb:----------------------------5-6-5---------------------------|
Db:----------------------------------8-6-----------------------|
Ab:------------------------------------------------------------|
Eb:------------------------------------------------------------|

  voy a despertar...        x2
eb:-0--------------2-----------|
Bb:-0--------------3---------2-|
Gb:-1--------------2---------2-|
Db:-2--------------0---------2-|
Ab:-2------------------------0-|
Eb:-0--------------------------|

eb:------|
Bb:------|
Gb:------|
Db:------|
Ab:------|
Eb:-12\--|

  todo south park todo south park....
  pm......................................
eb:-----------------------------------------------------2-2-2-2-2-|
Bb:------------------------------------------2-2-2-2-2--3-3-3-3-3-|
Gb:------------------------------------------2-2-2-2-2--2-2-2-2-2-|
Db:------------------------------------------2-2-2-2-2--0-0-0-0-0-|
Ab:-4-4-4-4-4-4-4-5-5-5-5-5-5-5-6-6-6-6-6-6--0-0-0-0-0------------|
Eb:-2-2-2-2-2-2-2-3-3-3-3-3-3-3-4-4-4-4-4-4-----------------------|

  quiero vivir en south park 
  gt1
eb:----------------------------------------------------------------|
Bb:----------------------------------------------------------------|
Gb:----------------------------------------------------------------|
Db:--------------------------------------------------2-2-4-2-2-4-2-|
Ab:-----------------------------------4-4-6-4-4-6-4--0-0-0-0-0-0-0-|
Eb:-----------------------------------2-2-2-2-2-2-2----------------|
  gt2
eb:----------------------------------------------------------|
Bb:----------------------------------------------2-2-2-2-2-2-|
Gb:-----------------------------------3-3-3-3-3--2-2-2-2-2-2-|
Db:-----------------------------------4-4-4-4-4--2-2-2-2-2-2-|
Ab:-----------------------------------4-4-4-4-4--0-0-0-0-0-0-|
Eb:-----------------------------------2-2-2-2-2--------------|
  
   
    quiero todo south park...
   gt1
eb:------------------------------|
Bb:------------------------------|
Gb:-2-2-4-2-2-4-2----------------|
Db:-0-0-0-0-0-0-0--2-2-4-2-2-4-2-|
Ab:----------------0-0-0-0-0-0-0-|
Eb:------------------------------|
   gt2
eb:-2-2-2-2-2-2-2-2-2-2--------------|
Bb:-3-3-3-3-3-3-3-3-3-3--2-2-2-2-2-2-|
Gb:-2-2-2-2-2-2-2-2-2-2--2-2-2-2-2-2-|
Db:-0-0-0-0-0-0-0-0-0-0--2-2-2-2-2-2-|
Ab:----------------------0-0-0-0-0-0-|
Eb:----------------------------------|
   gt3
eb:------------------------------------------------------------|
Bb:------------------------------------------------------------|
Gb:-----------------------14~~~~~~~----------------------------|
Db:------------------------------------------------------------|
Ab:------------------------------------------------------------|
Eb:------------------------------------------------------------|

  quiero vivir en south park
   gt1
eb:------------------------------|
Bb:------------------------------|
Gb:-2-2-4-2-2-4-2----------------|
Db:-0-0-0-0-0-0-0--2-2-4-2-2-4-2-|
Ab:----------------0-0-0-0-0-0-0-|
Eb:------------------------------|
   gt2
eb:-2-2-2-2-2-2-2-2-2-2------------------|
Bb:-3-3-3-3-3-3-3-3-3-3------------------|
Gb:-2-2-2-2-2-2-2-2-2-2------------------|
Db:-0-0-0-0-0-0-0-0-0-0--2-2-4-2-2-2-4-2-|
Ab:----------------------0-0-0-0-0-0-0-0-|
Eb:--------------------------------------|

             repeat
eb:-----------------|
Bb:-----------------|
Gb:-----------------|
Db:-2-2-4-2-2-2-4-2-|
Ab:-0-0-0-0-0-0-0-0-|
Eb:-----------------|

  solo
                -----------------------------
eb:------------/-------------------------------------------|
Bb:-------20bf/--20-20-20-20-20-20-20-20--20--20-17--------|
Gb:--------------------------------------------------19-17-|
Db:--------------------------------------------------------|
Ab:--------------------------------------------------------|
Eb:--------------------------------------------------------|

eb:-----------------------------------------------------------|
Bb:--------------------------------------------------17h20p17-|
Gb:----17----------17------------17----------17--19b----------|
Db:-19----19-17-19-----19-17--19----19-17-19------------------|
Ab:-----------------------------------------------------------|
Eb:-----------------------------------------------------------|

eb:------------------------------------------------------20bf--|
Bb:-----17h20p17-----17h20p17-----17h20p17-----17h20p17--------|
Gb:-19b----------19b----------19b----------19b-----------------|
Db:------------------------------------------------------------|
Ab:------------------------------------------------------------|
Eb:------------------------------------------------------------|

eb:-20-17-----------------------------------------|
Bb:-------20-17-----------------------------------|
Gb:-------------19-17-----------------------------|
Db:-------------------19-17-----------------------|
Ab:-------------------------19-17-----------------|
Eb:-------------------------------20-17--17~~~~~~-|

                   x2
eb:--------2---------|
Bb:--------3-----2---|
Gb:-4------2-----2---|
Db:-5------0-----2---|
Ab:-5------------0---|
Eb:-3----------------|




hillo son mex

31/10/15
Добавлено: 16.06.2016
Другие материалы по этой песне:
  • Аккорды и текст

Страница создана 16.06.2016
http://primanota.ru/south-park-ost/quiero-vivir-en-south-park-chords.htm
Привет, Гость.
Предлагаем пройти революционный курс по гитаре.
Подарок от PrimaNota.Ru, забирай!