PrimaNota.ru - самый крупный в мире бесплатный архив песенных текстов, аккордов, табулатур и нот


South Fm - Dear Claudia - аккорды и текст, видео

Регистрация Запомнить меня
Войти через:  Facebook Google Twitter Vk Yandex Mail.ru

South Fm - Dear Claudia - аккорды и текст, видео

Печатать
Просмотров: 68
Dear Claudia
South Fm
Artist: South FM
Song: Dear Claudia
Album: Drama Kids

[Riff 1] (Main Riff)

e|-----x-x-x-x-x-x-x-x-x-x-x-x-x-x
B|-----x-x-x-x-x-x-x-x-x-x-x-x-x-x
G|-----8-8-8-9-9-9-9-8-8-8-9-9-9-9
D|-----9-9-9-9-9-9-9-9-9-9-9-9-9-9
A|-----7-7-7-7-7-7-7-0-0-0-0-0-0-0
E|-----0-0-0-0-0-0-0-0-0-0-0-0-0-0
       
       Dear Claudia...                (Acoustic)
       And you do it so carelessly... (Acous. and Elect. w/ Dist.)
       It's true that you...    (Elect. w/ Dist. for rest of song)

[Riff 2] (Bridge with distortion)

e|-----x-x-x-x-x-x-x-x-x-x-x-x-x
B|-----x-x-x-x-x-x-x-x-x-x-x-x-x
G|-----x-x-x-x-x-x-x-x-x-x-x-x-x
D|-----6-6-6-6-6-6-6-6-7-7-7-7-9
A|-----6-6-6-6-6-6-6-6-7-7-7-7-9
E|-----4-4-4-4-4-4-4-4-5-5-5-5-7

       I will let you in before you break yourself

[Riff 3] (2nd Guitar Distortion)

e|-----2-2-2-0-0-0-0-------
B|-------------------4-4-4-
G|-------------------------
D|-------------------------
A|-------------------------
E|-------------------------

       Dear Claudia, You leave pieces of you...

[Riff 4] (Distortion)
e|-----x-x-x-x-x-x-x-x-x-x-x-x-x-x-x-x
B|-----x-x-x-x-x-x-x-x-x-x-x-x-x-x-x-x
G|-----6-6-6-6-6-6-6-6-x-x-x-x-x-x-x-x
D|-----6-6-6-6-6-6-6-6-7-7-7-7-7-7-7-7
A|-----4-4-4-4-4-4-4-4-7-7-7-7-7-7-7-7
E|-----x-x-x-x-x-x-x-x-5-5-5-5-5-5-5-5

       I will lay you fears right here next to my own

e|-----x-x-x-x-x-x-x-x-x-x-x-x-x-x-x-x
B|-----x-x-x-x-x-x-x-x-x-x-x-x-x-x-x-x
G|-----x-x-x-x-x-x-x-x-x-x-x-x-x-x-x-x
D|-----2-2-2-2-2-2-2-2-8-8-8-8-8-8-8-8
A|-----2-2-2-2-2-2-2-2-8-8-8-8-8-8-8-8
E|-----0-0-0-0-0-0-0-0-7-7-7-7-7-7-7-7

       And when we lay together..

[Riff 5]

e|---------------------------
B|---------------------------
G|-----------------------16--
D|--------16-------16-----16-
A|-----------14-------14-----
E|-----12-------12-----------

       Dear Claudia, You Should Try...
       (This could be with harmonics on 12th and 20th)

                                         Micah

Check out http://www.abercrombie.com/aftv
     
Добавлено: 08.10.2013
Другие материалы по этой песне:
  • Аккорды и текст

Страница создана 08.10.2013
http://primanota.ru/south-fm/dear-claudia-chords.htm
Привет, Гость.
Предлагаем пройти революционный курс по гитаре.
Подарок от PrimaNota.Ru, забирай!