PrimaNota.ru - самый крупный в мире бесплатный архив песенных текстов, аккордов, табулатур и нот


Soutaiseiriron - Yon Kaku Kakumei - таба, видео

Регистрация Запомнить меня
Войти через:  Facebook Google Twitter Vk Yandex Mail.ru

Soutaiseiriron - Yon Kaku Kakumei - таба, видео

Печатать
Просмотров: 111
e|-------------------------------------------|
B|-------------------------------------------|
G|-----------------------11------------------|
D|---------------------------11--9--11--9----| x3
A|-------------------------------------------|
E|-7------9---7-----11-----------------------|

e|-------------------------------------|
B|-------------------------------------|
G|-----------------------11------------|
D|---------------------------11--9--11-|
A|-------------------------------------|
E|-7------9---7-----11-----------------|

e|--------------------------------------------------------------------------------------|
B|--------------------------------------9-----------------------------------------------|
G|------------8-11--------------11-----------8------------8-----------------------------|
D|-9----11------------9-9----11----11-----11------9----11------9-9----11-13-14-13-11----| x2
A|---11----11------11-----11----------11-------11---11------11-----11----------------14-|
E|--------------------------------------------------------------------------------------|

^^^ all palm muted

e|---------------------------------------------------------------------------------|
B|-7-7-7-7-7-7----7-7-7-7--7--4-----7-7-7-7-7-7----7-7-7-7--7--4-------------------|
G|-4-4-4-4-4-4----4-4-4-4--4--1-----4-4-4-4-4-4----4-4-4-4--4--1-------------------|
D|---------------------------------------------------------------------14-13-11----|
A|------------------------------------------------------------------------------14-|
E|---------------------------------------------------------------------------------|

e|---------------------------------------------------------------------------------------|
B|---------------------------------------------------------------------------------------|
G|---------------8--------------8--------------------------8-----------------------------|
D|-9----11----11------9-9----11---------9----------9----11------9-9----11-13-14-13-11----| x2
A|---11----11------11-----11------11-11---11-11-11---11------11-----11----------------14-|
E|---------------------------------------------------------------------------------------|

^^^ All palm muted

e|---------------------------------------------------------|
B|-----10-----10-----10-----10-----10-----10-----10-----10-|
G|---9------9------9------9-------9-----9------9------9----|
D|-0------0------7------7--------------------9------9------| x4
A|-----------------------------9------9--------------------|
E|---------------------------------------------------------|

Repeat all of above minus intro

    e|-----------------------------------------|
    B|------10------10------10------10------10-|
GTR G|----9-------9-------9-------9-------9----|
 1  D|-12------12------12------12------12------| x2
    A|-----------------------------------------|
    E|-----------------------------------------|

    e|-----------------------------------------|
    B|-3---------3---------2---------3---------|
GTR G|-2---------2---------2---------2---------|
 2  D|-0---------2---------4---------0---------| x2
    A|---------------------4-------------------|
    E|-----------------------------------------|

    e|-----------------------------------------|
    B|------10------10------10------10------10-|
GTR G|----9-------9-------9-------9-------9----|
 1  D|-12------12------12------12------12------| x2
    A|-----------------------------------------|
    E|-----------------------------------------|

    e|-----------------------------------------|
    B|-3---------3---------2---------3---------|
GTR G|-2---------2---------2---------2---------|
 2  D|-0---------2---------4---------0---------| x2
    A|---------------------4-------------------|
    E|-----------------------------------------|

    e|----------------------------------------------------------|
    B|----------12----------12----------------12----------12----|
GTR G|----14----------14-------11-------14----------14-------14-|
 3  D|-14----14----14----14----------14----14----14----14-------| x2
    A|----------------------------------------------------------|
    E|----------------------------------------------------------|

e|-10-9----------|
B|------10-7---7-|
G|-----------9---|
D|---------------| x21
A|---------------|
E|---------------|

e|-10-9-|
B|------|
G|------|
D|------|
A|------|
E|------|


************************************

| /   slide up
| \   slide down
| h   hammer-on
| p   pull-off
| ~   vibrato
| +   harmonic
| x   Mute note
| b   Bend
| pb  Pre-bend
| br  Bend release
| pbr Pre-bend release
| brb Bend release bend

************************************
Добавлено: 24.12.2015
Вам также может быть интересно:
Другие материалы по этой песне:
  • Аккорды и текст

Страница создана 24.12.2015
http://primanota.ru/soutaiseiriron/yon-kaku-kakumei-chords.htm
Привет, Гость.
Предлагаем пройти революционный курс по гитаре.
Подарок от PrimaNota.Ru, забирай!