PrimaNota.ru - самый крупный в мире бесплатный архив песенных текстов, аккордов, табулатур и нот


Soutaiseiriron - Ohayo Opatsu - бас-таба

Регистрация Запомнить меня
Войти через:  Facebook Google Twitter Vk Yandex Mail.ru

Soutaiseiriron - Ohayo Opatsu - бас-таба

Печатать
Просмотров: 130
Уроки эстрадного вокала в Санкт-Петербурге
Guitar on It's own

G|-----|
D|-10\-|
A|-----| 
E|-----|

G|--------------------------------2-2-4-4-5-5-0--|
D|-3-3-------------2-2-0-2--2-0-2----------------|
A|-------3-3-2-3---------------------------------| x4
E|-----------------------------------------------|

G|-----------------------5-4-5------------------------------|
D|-3-3-33-5-3-2-----2-55-----------2--00--------------------|
A|--------------3-3----------------------3-2-3-0-0-2-3-33---| x2
E|-----------------------------0-0------------------------3-|

G|--------------------------------2-2-4-4-5-5-0--|
D|-3-3-------------2-2-0-2--2-0-2----------------|
A|-------3-3-2-3---------------------------------| x2
E|-----------------------------------------------|

G|----5-----------5-5--------------------------|
D|-3-----3-3----5-----5----2-0-----------------|
A|-----------3-----------------3-0-0-2-2-3-3---| x2
E|----------------------0--------------------3-|

G|---------------------------------2---4---5-------------------------------------------|
D|---------------------5-----------------------5---------------------5-----------------|
A|----------33333333-------------0---2---3----------------33333333---------------------|
E|-11111111----------3---3-33333-------------3---11111111----------3---333333-55555555-|

G|-----------------------5-4-5------------------------------|
D|-3-3-33-5-3-2-----2-55-----------2--00--------------------|
A|--------------3-3----------------------3-2-3-0-0-2-3-33---| x2
E|-----------------------------0-0------------------------3-|

G|----------------------------------------------2-2-4-4-5-55-0--|
D|-3--3--33-2-3-2---------------2-2-0-2--22-0-2-----------------|
A|----------------3-3-2-3--3-33---------------------------------| x2
E|--------------------------------------------------------------|

G|----5-----------5-5--------------------------|
D|-3-----3-3----5-----5----2-0-----------------|
A|-----------3-----------------3-0-0-2-2-3-3---| x4
E|----------------------0--------------------3-|

G|---------------------------------2---4---5-----|
D|---------------------5-----------------------5-|
A|----------33333333-------------0---2---3-------| x2
E|-11111111----------3---3-33333-------------3---|

G|--------------------------5----4h5----5---4h5------------------------------------------------|
D|----3---2h3----3---2h3---------------------------5---3h5-------------------------12----------|
A|-----------------------3----3------3----3-------------------------------10h12p10----12-10h12-|
E|-1----1-----1----1----------------------------3----3-----3-3-3-3-5-5--5----------------------|

G|--------------------------5----4h5----5---4h5------------------------|-------------|
D|----3---2h3----3---2h3---------------------------5---3h5-------------|-------------|
A|-----------------------3----3------3----3----------------------------|-----3-------|
E|-1----1-----1----1----------------------------3----3-----3-3-3-3-5-5-|-3h5---5-3h5-|
                                                                        Gradual slow down

G|-----------------------------------|
D|-3-3-------------------------------|
A|-------3-3-2-3---------------------|
E|-----------------0--0--0--0--5--5--|
Добавлено: 26.06.2016
Другие материалы по этой песне:
  • Аккорды и текст

Страница создана 26.06.2016
http://primanota.ru/soutaiseiriron/ohayo-opatsu-chords.htm
Привет, Гость.
Предлагаем пройти революционный курс по гитаре.
Подарок от PrimaNota.Ru, забирай!