PrimaNota.ru - самый крупный в мире бесплатный архив песенных текстов, аккордов, табулатур и нот


Sourpuss - Mattress - таба, видео

Регистрация Запомнить меня
Войти через:  Facebook Google Twitter Vk Yandex Mail.ru

Sourpuss - Mattress - таба, видео

Печатать
Просмотров: 154
Уроки эстрадного вокала в Санкт-Петербурге
Mattress - Sourpuss


e|---------------------------------------------------------------|
b|---------------------------------------------------------------|
g|-------------------------——-—--—-------------------------------|
d|------------2--------------------------------------------------|
a|--0—0-2-0-2---3-3-3—3-3-3—3—2--5---------------7---------------|      
E|-------------------------------3-3-3-3-3-3-3-3-5-5-5-5-5-5-5-5-|


e|---------------------------------------------------------------|
b|---------------------------------------------------------------|
g|-------------------------——-—--—-------------------------------|
d|------------2------------------5-5-5-5-5-5-5-5-7-7-7-7-7-7-7-7-|
a|--0—0-2-0-2---3-3-3—3-3-3—3—3--5-5-5-5-5-5-5-5-7-7-7-7-7-7-7-7-|   
E|-------------------------------3-3-3-3-3-3-3-3-5-5-5-5-5-5-5-5-|


(Backing)
e|---------------------------------------------------------------|
b|---------------------------------------------------------------|
g|---------------5-5-5-5-5-5-----——------------------------------|
d|--7-7-7-7-7-7--5-5-5-5-5-5--5-5-5-5-5-5--7-7-7-7-7-7-----------|
a|--5—5-5-5-5-5--3-3-3—3-3-3——5-5-5-5-5-5--5-5-5-5-5-5-----------|      
E|--5-5-5-5-5-5---------------3-3-3-3-3-3--5-5-5-5-5-5-----------|


(Chorus)
e|---------------------------------------------------------------|
b|---------------------------------------------------------------|
g|-------------------------——-—--—-------------------------------|
d|--2-2-2-2-2--7-7-7-7-7-----------------------------------------|
a|--2—2-2-2-2--7-7-7-7—7--——-------------------------------------|
E|--0-0-0-0-0--5-5-5-5-5-----------------------------------------|


(Solo)
e|---------------------------------------------------------------|
b|---------------------------------------------------------------|
g|-------------------------——-—--—-------------------------------|
d|--------------------------^------------4-5-7-4-5-7-4-5-7-4-2-4-|
a|--7—7-5-7-/12-12-12-5-5-5—7-10-12—14—7-4-5-7-4-5-7-4-5-7-4-2-4-|      
E|---------------------------------------2-3-5-2-3-5-2-3-5-2-0-2-|
Добавлено: 16.05.2012
Другие материалы по этой песне:
  • Аккорды и текст

Страница создана 16.05.2012
http://primanota.ru/sourpuss/mattress-chords.htm
Привет, Гость.
Предлагаем пройти революционный курс по гитаре.
Подарок от PrimaNota.Ru, забирай!