PrimaNota.ru - самый крупный в мире бесплатный архив песенных текстов, аккордов, табулатур и нот


Sourpuss - Dr Faustus Live - таба, видео

Регистрация Запомнить меня
Войти через:  Facebook Google Twitter Vk Yandex Mail.ru

Sourpuss - Dr Faustus Live - таба, видео

Печатать
Просмотров: 46
Уроки эстрадного вокала в Санкт-Петербурге
Dr. Faustus - Sourpuss @ The Corner Hotel, Melbourne Australia

riff 1 (0:00 - 1:19)
e|------------------------------------|
B|------------------------------------|
G|------------------------------------|
D|------------------------1111111111--|
A|---11--11----111191111--1111111111--|
E|---0---0-----0-0-00-0---9-9-9-9-9---|

riff2 (1:20 - 2:48)
e|-----------------------------------------------------------------|
B|-----------------------------------------------------------------|
G|----------------------99999999-------------666666666--444444444--|
D|----1111111111111111--99999999--777777777--666666666--444444444--| 4x
A|----1111111111111111--77777777--777777777--444444444--222222222--|
E|----9-9-9-9-9-9-9-9-------------555555555------------------------|

solo (2:49 - 3:11)
e|------------------------------------------------------------------------|
B|-----------------------------------------12b--9--12b-9-12-99-999--------|
G|----------9-11------9-11------9-11-9-8b---------------------------------|
D|-----9h11------9h11------9h11-------------------------------------------|  2x
A|------------------------------------------------------------------------|
E|------------------------------------------------------------------------|

(3:12 - 3:34)
e|----------------------------------------------------------------------------|
B|----------------------------------------------------------------------------|
G|----------9-8------9-8-------9-8---------8-9-8-9-8-9-11---8-9-8-9-8-9-11-9--|
D|-----9h11------9h11------9h11----9------------------------------------------|  2x
A|----------------------------------------------------------------------------|
E|----------------------------------------------------------------------------|

then
riff2 (3:35 - 3:46)
e|------------------------------------------------------------------------|
B|------------------------------------------------------------------------|
G|----------------------99999999-------------666666666--444444444---------|
D|----1111111111111111--99999999--777777777--666666666--444444444---------| 1x
A|----1111111111111111--77777777--777777777--444444444--222222222---------|
E|----9-9-9-9-9-9-9-9-------------555555555-------------------------------|

riff3 (3:47 - 4:12)
e|-----------------------------------------------------------------------------------------|
B|-----------------------------------------------------------------------------------------|
G|-----------------------------------------------------------------------------------------|
D|-----------------------------------------------------777777777--666666666--444444444-----| 2x
A|----4-4-666--4-4-666-46666---7-7-999--7-7-999-7999---777777777--666666666--444444444-----|
E|----0-0-000--0-0-000-00000---0-0-000--0-0-000-0000---555555555--444444444--222222222-----|

riff2 (4:13 - 4:59)
e|------------------------------------------------------------------------|
B|------------------------------------------------------------------------|
G|----------------------99999999-------------666666666--444444444---------|
D|----1111111111111111--99999999--777777777--666666666--444444444---------| 4x
A|----1111111111111111--77777777--777777777--444444444--222222222---------|
E|----9-9-9-9-9-9-9-9-------------555555555-------------------------------|

riff1 (5:00 - 5:37)
e|------------------------------------|
B|------------------------------------|
G|------------------------------------|
D|------------------------1111111111--|
A|---11--11----111191111--1111111111--|
E|---0---0-----0-0-00-0---9-9-9-9-9---|

end (5:38 - 5:42)
e|------------------------------------------|
B|------------------------------------------|
G|------------------------------------------|
D|---------9h11-9--9h11-------111111111111--| 1x
A|----9h11--------------9h11--111111111111--|
E|----------------------------9-9-9-9-9-9---|
Добавлено: 09.06.2016
Другие материалы по этой песне:
  • Аккорды и текст

Страница создана 09.06.2016
http://primanota.ru/sourpuss/dr-faustus-live-chords.htm
Привет, Гость.
Предлагаем пройти революционный курс по гитаре.
Подарок от PrimaNota.Ru, забирай!