PrimaNota.ru - самый крупный в мире бесплатный архив песенных текстов, аккордов, табулатур и нот


Sounds Like Harmony - Fireworks - таба, видео

Регистрация Запомнить меня
Войти через:  Facebook Google Twitter Vk Yandex Mail.ru

Sounds Like Harmony - Fireworks - таба, видео

Печатать
Просмотров: 111
-------------------------------------------------------------------------------
                             FIREWORKS - Sounds Like Harmony
-------------------------------------------------------------------------------
Tabbed by: kate, holaa!
E-mail:

-Tyler sent me this tab so it's as accurate as is can get!-
**also, they're all power chords so it's super easy to learn!**

~~~~~~~~~~~~~~~~~~~~~~~~~~~~~~~~~~~~~~~~~~~~~~~~~~~~~~~~~~~~
Tuning:EADGBE (Standard Tuning)
Capo 3
~~~~~~~~~~~~~~~~~~~~~~~~~~~~~~~~~~~~~~~~~~~~~~~~~~~~~~~~~~~~

INTRO:
e|---------------------------------------------------------------------------|
B|---------------------------------------------------------------------------|
G|---9-----9-----6-----4-----2----4-----6-----9-----9-----6------------------|
D|---9-----9-----6-----4-----2----4-----6-----9-----9-----6------------------|
A|---7-----6-----4-----2----------2-----4-----7-----6-----4------------------|
E|---------------------------------------------------------------------------|


VERSE 1:                  ('we're both dead if she ever knows, (ever knows).")
e|---------------------------------------------------------------------------|
B|---------------------------------------------------------------------------|
G|---9-----9------6-----4--------------------------------------------2-------|
D|---9-----9------6-----4--------------------------------------------2-------|
A|---7-----6------4-----2----------------------------------------------------|
E|---------------------------------------------------------------------------|

CHORUS:

     E
e|---------------------------------------------------------------------------|
B|---------------------------------------------------------------------------|
G|---------4-------6-----2---------------------------------------------------|
D|---------4-------6-----2---------------------------------------------------|
A|---------2-------4---------------------------------------------------------|
E|---------------------------------------------------------------------------|

BRIDGE:

     E
e|------------------------------------------------------------------------------|
B|------------------------------------------------------------------------------|
G|---------2-------4-----6------2-----------------------------------------------|
D|---------2-------4-----6------2-----------------------------------------------|
A|-----------------2-----4------------------------------------------------------|
E|------------------------------------------------------------------------------|

************************************

| /   slide up
| \   slide down
| h   hammer-on
| p   pull-off
| ~   vibrato
| +   harmonic
| x   Mute note
| b   Bend
| pb  Pre-bend
| br  Bend release
| pbr Pre-bend release
| brb Bend release bend

************************************
Добавлено: 31.12.2015
Другие материалы по этой песне:
  • Аккорды и текст

Страница создана 31.12.2015
http://primanota.ru/sounds-like-harmony/fireworks-chords.htm
Привет, Гость.
Предлагаем пройти революционный курс по гитаре.
Подарок от PrimaNota.Ru, забирай!