PrimaNota.ru - самый крупный в мире бесплатный архив песенных текстов, аккордов, табулатур и нот


Soundgarden - Karaoke - аккорды и текст, таба, бас-таба, видео

Регистрация Запомнить меня
Войти через:  Facebook Google Twitter Vk Yandex Mail.ru

Soundgarden - Karaoke - аккорды и текст, таба, бас-таба, видео

Печатать
Просмотров: 205
Karaoke
Soundgarden
		   Posted by Dave Nailling.  (Fett81@aol.com)



          Karaoke
                 By Soundgarden from Burden In my Hand single.

          Standard tuining (EADGBe)

          Notation:
                         /=Slide up
                         \=Slide down
                         b=bend to pitch of fret indicated
                         r=return bend to pitch of fret indicated

          Intro Part (x2)

e-------------------------------------------------------
B-------------------------------------------------------
G--9999999999999-7-6666666666666-5-444444444444444
D--9999999999999-7-6666666666666-5-444444444444444
A-------------------------------------------------------
E-------------------------------------------------------

e-------------------I
B--4444444444/10\-I
G--4444444444/10\-I
D-------------------I
A-------------------I
E-------------------I

          Verse Part (x12)

e-------------------------------------I
B-------------------------------------I
G---------------0---------------------I
D---------------0--4--x--3-b-4-r-3----I
A--0--2--3--4-----4--x--3-b-4-r-3--4-I
E--0--2--3--4-----------------------4-I

          Pre Chorus Part (x4)

e----------------------------------I
B----------------------------------I
G---------------6------------------I
D--4--4--3--3--6-------------------I
A--4--4--3--3--4----3--4--3-------I
E--2--2--1--1-----------------5--4-I

          Verse Part (x4)

          Pre Chorus Part (x4)

          Chorus Part (x3)

e-----------------------------------------------------
B-----------------------------------------------------
G--4-4-4-4-4-4-4-4-4-4-4-4-4-4-4-4-3-3-3-3-3-3-3-3
D--4-4-4-4-4-4-4-4-4-4-4-4-4-4-4-4-3-3-3-3-3-3-3-3
A--2-2-2-2-2-2-2-2-0-0-0-0-0-0-0-0-1-1-1-1-1-1-1-1
E-----------------------------------------------------

e-----------------------------------------------------I
B-----------------------------------------------------I
G-----------------------------------------------------I
D-4-4-4-4-4-4-4-4-5-5-5-5-5-5-5-5-5-5-5-5-5-5-5-5-I
A-4-4-4-4-4-4-4-4-5-5-5-5-5-5-5-5-5-5-5-5-5-5-5-5-I
E-2-2-2-2-2-2-2-2-3-3-3-3-3-3-3-3-3-3-3-3-3-3-3-3-I

          Chorus Fill (during G chord)

e---------I
B--0-2-0-I
G--0-2-0-I
D--------I
A--------I
E---------I

          Post Chorus Part (x1)

e----------------------------------------I
B----------------------------------------I
G----------------------------------------I
D--5-/-9-9-9-9-9-9-9-9-9-9-9-9-9-9-9-9-I
A--5-/-9-9-9-9-9-9-9-9-9-9-9-9-9-9-9-9-I
E--3-/-7-7-7-7-7-7-7-7-7-7-7-7-7-7-7-7-I

          Post Chorus Fill (during B chord)

e-------------------------------------I
B--0-2-3-3-3-3-3-3-3-3-3-3-3-3-3-3-I
G--0-2-3-3-3-3-3-3-3-3-3-3-3-3-3-3-I
D------------------------------------I
A------------------------------------I
E------------------------------------I

          Verse Part (x4)

          Pre Chorus Part (x4)

          Chorus Part (x3)

          Post Chorus Part (x1)

          Verse Part (x4)

          Bridge Part (x8)

e-------------------------I
B--------------0----------I
G-------------------------I
D--------5--------5-----5-I
A-----0-----0--------0----I
E--4-----------------------I

          Chorus Part (x5)

          Intro Part (x3)

          Notes:

                  Kim and Chris probably hit all of the open strings after
the intro and outro.  It's no big deal, though.  C it if you want to.  Also,
the bridge is probably wrong, but it sounds fine.  If you have any questions
or comments, pleases send them to me!     
Добавлено: 15.11.2013
Другие материалы по этой песне:
  • Аккорды и текст

Страница создана 25.03.2012
http://primanota.ru/soundgarden/karaoke-chords.htm
Привет, Гость.
Предлагаем пройти революционный курс по гитаре.
Подарок от PrimaNota.Ru, забирай!