PrimaNota.ru - самый крупный в мире бесплатный архив песенных текстов, аккордов, табулатур и нот


Soundgarden - Half - аккорды и текст, таба, видео

Регистрация Запомнить меня
Войти через:  Facebook Google Twitter Vk Yandex Mail.ru

Soundgarden - Half - аккорды и текст, таба, видео

Печатать
Просмотров: 141
Авторы музыки: Ben Shepherd
Авторы текста: Ben Shepherd
Half
Soundgarden
		   e: Wed, 8 Apr 1998 21:36:13 -0500

Song: Half
Band: Soundgarden
Music/Lyrics: Ben Shepherd
Album: Superunknown
Tuning: CGCGGE

Here is a really trippy song. It may be tuned to open C# instead of C...I
can't remember. This song is easy. Have fun with it.

Intro: Play twice
E|----------------------------|--------------------------------|
G|----10p9----9h10--9---0-----|-(0)-0--10p9----9h10--9---9-----|
G|----10p9----9h10--9---0-----|-(0)-0--10p9----9h10--9---9-----|
C|-0--------------------------|--------------------------------|
G|----------------------------|--------------------------------|
C|----------------------------|--------------------------------|


  Verses: Play twice
E|----------------------------|--------------------------------|
G|----10p9----9h10--9---0-----|-(0)-0--10p9----9h10---9--------|
G|----10p9----9h10--9---0-----|-(0)-0--10p9----9h10---9--------|
C|-0--------------------------|-----------------------------0--|
G|----------------------------|-----------------------------0--|
C|----------------------------|-----------------------------0--|

E|--------------------------------------------------|
G|----10------5-----5--5--5-----5--5--5-----5--5----|
G|----10------5-----5--5--5-----5--5--5-----5--5----|
C|----10---0--5-----5--5--5-----5--5--5-----5--5p0--|
G|----10---0--5-----5--5--5-----5--5--5-----5--5p0--|
C|----10---0--5-----5--5--5-----5--5--5-----5--5p0--|


  Chorus: Play twice
E|------------------------------------------|
G|-----8p7---8p7----/10--8p7---8----7--5----|
G|-----8p7---8p7----/10--8p7---8----7--5----|
C|---0-----0-----0--------------------------|
G|---0--------------------------------------|
C|---0--------------------------------------|

E|-----------------------------------------|
G|-(5)-8p7---8p7---/10----8p7--5-----------|
G|-(5)-8p7---8p7---/10----8p7--5-----0-----|
C|---------0-----0-------------------0-----|
G|-----------------------------------0-----|
C|-----------------------------------0-----|


E|--------------------------------------------------|
G|---10-------5-----5--5--5-----5--5--5-----5--5----|
G|---10-------5-----5--5--5-----5--5--5-----5--5----|
C|---10---0---5-----5--5--5-----5--5--5-----5--5p0--|
G|---10---0---5-----5--5--5-----5--5--5-----5--5p0--|
C|---10---0---5-----5--5--5-----5--5--5-----5--5p0--|


   Outro: Play 6 times
E||------------------------|-----------------------||----------|
G||------------------------|-----------------------||----------|
G||o-----7-----------------|---------5------------o||----------|
C||o---------4---5---4-----|-----2-------3---2----o||----------|
G||--5------------------5--|-3------------------3--||----------|
C||------------------------|-----------------------||--0--0----|


Lyrics:
     When I hand my love in
     I'll be done
     A handed glove
     Hides the door

     Half a chance
     Half a chance
     We still
     Have a chance

     Mr. Full, Mr. Have
     Kills Mr. Empty Hand

     Half a chance
     Half a chance
     We still
     Have a chance     
Добавлено: 22.06.2013
Другие материалы по этой песне:

Страница создана 21.03.2012
http://primanota.ru/soundgarden/half-chords.htm
Привет, Гость.
Предлагаем пройти революционный курс по гитаре.
Подарок от PrimaNota.Ru, забирай!