PrimaNota.ru - самый крупный в мире бесплатный архив песенных текстов, аккордов, табулатур и нот


Soundgarden - Entering - аккорды и текст, таба, видео

Регистрация Запомнить меня
Войти через:  Facebook Google Twitter Vk Yandex Mail.ru

Soundgarden - Entering - аккорды и текст, таба, видео

Печатать
Просмотров: 129
Entering
Soundgarden
Subject: "Entering" Soundgarden
Date: Sat, 14 Mar 1998 10:31:06 PST

SOUNDGARDEN
From: Screaming Life
Entering

Intro and Break between Verses:
D-----------------------------------0----------------------------
A------------------2---------------------------------0-----------
E-0--------------------------------------------------------------

Verses:
  E5            B5add4        D6add2       Asus2  
E--0-0-0-0--0-|----0---0--0-|---0--0---0-|----0-0----0-----------
B--0-0-0-0--0-|----0---0--0-|---0----0-0-|------0----0-0---------
G-------------|----4-4-4--4-|---7--7---7-|----2-2-2--2-2---------
D-2----2-2--2-|----4-4-4----|-7-7--7---7-|----2-2-2----2---------
A-2----2-2----|-2--2-2-2----|-5----5---5-|-0--0-0-0----0---------
E-0----0-0----|-------------|------------|-----------------------

Play the verses with a LOT of changes and very sloppy. And twice as fast 
as the intro. The 1st chord can be on the 7th fret also and the 3rd 
chord can be played open.

Lyrics:

     I'm entering
     Without a sound
     I'm entering
     On wings I've found
     A million miles
     Of covered ground
     I'm entering, entering yeah
     Well I'm entering

     I'm entering
     Without a sound
     I'm entering
     On wings I've found
     A million miles
     Of covered ground
     I'm entering, I'm entering yeah
     Well I'm entering, yeah, yeah

     I'm entering
     Bleeding hearts, two lights, goodness, stable
     Glass on bars won't hold me back
     Without a sound
     Or a thought
     I'm entering
     I'm entering

     Oh yeah without a sound
     I'm entering, entering
     On wings I've found
     A million, million miles, a million miles
     Well I'm entering, entering, entering, entering, entering,      
entering yeah 



______________________________________________________
Get Your Private, Free Email at http://www.hotmail.com

Добавлено: 27.04.2012
Другие материалы по этой песне:
  • Аккорды и текст

Страница создана 10.03.2012
http://primanota.ru/soundgarden/entering-chords.htm
Привет, Гость.
Предлагаем пройти революционный курс по гитаре.
Подарок от PrimaNota.Ru, забирай!