PrimaNota.ru - самый крупный в мире бесплатный архив песенных текстов, аккордов, табулатур и нот


Soundgarden - Blood On The Valley Floor - таба, видео

Регистрация Запомнить меня
Войти через:  Facebook Google Twitter Vk Yandex Mail.ru

Soundgarden - Blood On The Valley Floor - таба, видео

Печатать
Просмотров: 151
Авторы музыки: Kim Thayil
Авторы текста: Chris Cornell
Blood On The Valley Floor

Soundgarden

Tabbed by Brownbear93

Tuning: C G D G B E


|----------------------------------------|
|----------------------------------------|
|--5h7-7-7-7-5-3--3h5-5-5-5-5-3h5p3p0----|
|----------------------------------------|
|----------------------------------------|
|----------------------------------------|


Verse: x2
|-----------------------------|
|-----------------------------|x4
|-----------------------------| 
|-----------------------------|
|---5--5----7--7-7-7-7-5-3----|
|---0--0----0--0-0-0-0-0-0----|

|------------------------------------------------------------------------------------------|
|------------------------------------------------------------------------------------------|
|------------------------------------------------------5h7-7-7-7-5-3--3h5-5-5-5-5-3h5p3p0--| 
|------------------------------------------------------------------------------------------|
|---5--5----7--7-7-7-7-5-3-----5--5----7--7-7-7-7-5-3--------------------------------------|
|---0--0----0--0-0-0-0-0-0-----0--0----0--0-0-0-0-0-0--------------------------------------|
   

Chorus:
                                       x2
|---------------------------------------|-----------------------------------|
|---------------------------------------|-----------------------------------|
|---3--------0---------------------5----|-----------------------------------|
|---3---3----0------------3-5----5-5----|-1--------------2------------------|
|---3---3--3-0-----0-3----3-5----5-5----|------------3-5----3-------3---5---|
|-------3--3-0-----0-3----3-5----5------|----3-5-3------------5-3-----3-----|

Verse

G2:
|--------0-------|
|----------------|
|---2/3----------|x2
|----------------|
|----------------|
|----------------|


Chorus


G2:w/ slide             x2
|------------------------|---------------------------------------------------------|
|------------------------|---------------------------------------------------------|
|---3/5------5\3----5/7--|--7/12------3/5--5\0-----10/12------0/5--5\0---0/5---5\0-|
|------------------------|---------------------------------------------------------|
|------------------------|---------------------------------------------------------|
|------------------------|---------------------------------------------------------|

G3:
|---------------------|
|---------------------|
|--10\9-7---7-7/12----|
|---------------------|
|--10\9-7---7-7/12----|
|---------------------|


G1 Solo backing:
                       x2                      
|-------------------------|-----------------------------------------|
|-------------------------|-----------------------------------------|
|-------------------------|-----------------------------------------| x2
|---------2---------------|--------1------------2-------------------|
|--5--5-----3------3---5--|-5--5------------3-5-----3-------3---5---|
|--0--0-------5-3----3----|-0--0-----3-5-3------------5-3-----3-----|




Solo:
|----------------------------------------------------------------|
|----------------------------------------------------------------|
|--14/15-14-12------14/15/17---12\10--9/10---------7b--r-5h7p5---|
|----------------------------------------------------------------|
|--14/15-14-12------14/15/17---12\10--9/10-----------------------|
|----------------------------------------------------------------|

|----------------------------------------------------------------------------------|
|----------------------------------------------------------------------------------|
|--12/15--14/15--12-10-9-10/12\9-9----9/10\9-7-5--7-9-9-----15\12-10-9-10/12-10-9--|
|----------------------------------------------------------------------------------|
|--12/15--14/15--12-10-9-10/12\9-9----9/10\9-7-5--7-9-9-----15\12-10-9-10/12-10-9--|
|----------------------------------------------------------------------------------|

|-------------------------------------------------------------|
|-------------------------------------------------------------|
|-9/12-10-9--9-9\7--5/7\5--3/5\2--3/-------------5b-3h5-0-----|
|-------------------------------------------------------------|
|-9/12-10-9--9-9\7--5/7\5--3/5\2--3/--------------------------|
|-------------------------------------------------------------|

Verse

Chorus

End on:
|----------|
|----------|
|----------|
|----------|
|---5--5---|
|---0--0---|


************************************

| /   slide up
| \   slide down
| h   hammer-on
| p   pull-off
| ~   vibrato
| +   harmonic
| x   Mute note
| b   Bend
| pb  Pre-bend
| br  Bend release
| pbr Pre-bend release
| brb Bend release bend

************************************
Добавлено: 30.11.2013
Другие материалы по этой песне:
  • Аккорды и текст

Страница создана 30.11.2013
http://primanota.ru/soundgarden/blood-on-the-valley-floor-chords.htm
Привет, Гость.
Предлагаем пройти революционный курс по гитаре.
Подарок от PrimaNota.Ru, забирай!