PrimaNota.ru - самый крупный в мире бесплатный архив песенных текстов, аккордов, табулатур и нот


Sound Tribe Sector 9 - Mischief Of A Sleep Walker - таба, видео

Регистрация Запомнить меня
Войти через:  Facebook Google Twitter Vk Yandex Mail.ru

Sound Tribe Sector 9 - Mischief Of A Sleep Walker - таба, видео

Печатать
Просмотров: 121
Уроки эстрадного вокала в Санкт-Петербурге
http://sts9.com/

---------------------------------------------------------------
   Mischief of a Sleepwalker - Sound Tribe Sector 9  (STS 9)
-------------------------------------------------------------------------------
Tabbed by: Jonny Reeves
Email:  J_M_reeves@yahoo.com

Tuning:  Regular
I used a live recording from Nokia Theater NY 9/29/07

Main Part
               3X                 1X
----------------|---------------------|
----------------|-----------------8---|
------10--8-7---|------10--8-7--------|
 ---8--------(8)|---8----------(8)----|
 10-(10)--------|10--(10)-------------|
 ---------------|---------------------|

Some improv on the part but it is mainly repeated

A              B            C

_----------|| |------------|-------------11-13-16-15—-18|
 --------8-|| |---7-8-----7|---7-8—10-12----------------|
 ----7-8---||:|10-----10---|10--------------------------|
 10--------|| |------------|----------------------------|
 ----------|| |------------|----------------------------|
 ----------|| |------------|----------------------------|


A:  i think 4X  then
B:  2X   then
A: 2X
B: 2x
Back to the main part for a little
then an improv solo part
climaxes at something along the lines of
C:


feel free to email me corrections/ bass lines etc.
Добавлено: 23.06.2012
Другие материалы по этой песне:
  • Аккорды и текст

Страница создана 23.06.2012
http://primanota.ru/sound-tribe-sector-9/mischief-of-a-sleep-walker-chords.htm
Привет, Гость.
Предлагаем пройти революционный курс по гитаре.
Подарок от PrimaNota.Ru, забирай!