PrimaNota.ru - самый крупный в мире бесплатный архив песенных текстов, аккордов, табулатур и нот


Sound Of Contact - Pale Blue Dot - бас-таба, видео

Регистрация Запомнить меня
Войти через:  Facebook Google Twitter Vk Yandex Mail.ru

Sound Of Contact - Pale Blue Dot - бас-таба, видео

Печатать
Просмотров: 33
Уроки эстрадного вокала в Санкт-Петербурге
Авторы: Simon Collins, Dave Kerzner, Kelly Nordstrom

                          Sound of Contact -  Pale Blue Dot                                   


Intro
     W                   W                                     
G||-------------------|-------------------|-------------------|
D||-------------------|-------------------|-------------------|
A||-------------------|-------------------|-------------------|
E||--3----------------|--L----------------|-------------------|


                      (bass / drum cymbals enter)              
                      Q.                          E  H         
-------------------|------------------------------------------|
-------------------|------------------------------------------|
-------------------|--3---------------------------------------|
-------------------|------------------------------4--L--------|


  W                   W                   E  Q.     E  Q.      
-------------------|-------------------|----------------------|
-------------------|-------------------|----------------------|
-------------------|-------------------|---------------6------|
--L----------------|--L----------------|--L--3------L---------|


  W                   W                   Q.     E  H         
-------------------|-------------------|---------------------|
-------------------|-------------------|---------------------|
--L----------------|--L----------------|--3------------------|
-------------------|-------------------|---------4--L--------|


  W                   Q.     E  H           W                 
-------------------|---------------------|-------------------|
-------------------|---------------------|-------------------|
-------------------|--3------------------|-------------------|
--L----------------|---------4--L--------|--L----------------|


  Q.     E  H           E  Q.     E  Q.        Q.     E  H         
---------------------|----------------------|---------------------|
---------------------|----------------------|---------------------|
--3------------------|---------------6------|--3------------------|
---------4--L--------|--L--3------L---------|---------4--L--------|


  W                   Q.     E  H           E  Q.     E  Q.      
-------------------|---------------------|----------------------|
-------------------|---------------------|----------------------|
-------------------|--3------------------|---------------6------|
--L----------------|---------4--L--------|--L--3------L---------|


    Q.     E  H           W                   Q.     E  H         
|----------------------|-------------------|---------------------|
|*---------------------|-------------------|---------------------|
|*--3------------------|-------------------|--3------------------|
|----------4--L--------|--L----------------|---------4--L--------|



                            (Chorus w/o vocals)
  E  Q.     E  Q.           W                   W                 
-----------------------||--------------------|-------------------|
----------------------*||*-------------------|-------------------|
---------------6------*||*-------------------|--1----------------|
--L--3------L----------||---4----------------|-------------------|




                                          Verse 1
  W                   W                      Q.     E  H         
-------------------|--------------------||----------------------|
-------------------|-------------------*||*---------------------|
--3----------------|--L----------------*||*--3------------------|
-------------------|--------------------||----------4--L--------|


  W                   Q.     E  H           E  Q.     E  Q.      4x
-------------------|---------------------|-----------------------||
-------------------|---------------------|----------------------*||
-------------------|--3------------------|---------------6------*||
--L----------------|---------4--L--------|--L--3------L----------||



 Chorus 1

   Q.     E  H           Q.     E  H           Q.     E  H         
----------------------|---------------------|---------------------|
*---------------------|---------------------|---------------------|
*---------------------|--1------1--L--------|--3------3--L--------|
---4------4--L--------|---------------------|---------------------|

                        Verse 2
  Q.     E  H              Q.     E  H           W                 
----------------------||----------------------|-------------------|
---------------------*||*---------------------|-------------------|
--3------3--L--------*||*--3------------------|-------------------|
----------------------||----------4--L--------|--L----------------|


                                                Chorus 2
  Q.     E  H           E  Q.     E  Q.      4x   Q.     E  H         
---------------------|-----------------------||----------------------|
---------------------|----------------------*||*---------------------|
--3------------------|---------------6------*||*---------------------|
---------4--L--------|--L--3------L----------||---4------4--L--------|


  Q.     E  H           Q.     E  H           Q.     E  H         3x
---------------------|---------------------|----------------------||
---------------------|---------------------|---------------------*||
--1------1--L--------|--3------3--L--------|--3------3--L--------*||
---------------------|---------------------|----------------------||



Bridge

  H        H           H        Q    Q       H.           Q     
--------------------|---------------------|--------------------|
--------------------|---------------------|--------------------|
--------------------|---------------------|--6-----------------|
--3--------3--------|--4--------4----4----|---------------6----|


  W                   H        H           H        H         
-------------------|--------------------|--------------------|
-------------------|--------------------|--------------------|
-------------------|--------------------|--6--------6--------|
--L----------------|--4--------4--------|--------------------|


  H.           Q       W                   H        H         
--------------------|-------------------|--------------------|
--------------------|-------------------|--------------------|
--------------------|-------------------|--------------------|
--8------------6----|--L----------------|--4--------4--------|


  H        H           H.           Q       E  E  E  E  E  E  Q     
--------------------|--------------------|-------------------------|
--------------------|--------------------|-------------------------|
--6--------6--------|--------------------|-----------5--5----------|
--------------------|--8------------6----|--L--8--8--------8--6----|


  H        H           H        Q    Q       Q.     Q.     Q     
--------------------|---------------------|---------------------|
--------------------|---------------------|---------------------|
--------------------|---------------------|--6------6-----------|
--3--------3--------|--4--------4----4----|----------------6----|


                      8 bars rest,                                              
  W                   W                                                         
-------------------|-------------------|
-------------------|-------------------|
-------------------|-------------------|
--L----------------|-------------------|



   W                   W                 
|-------------------|-------------------|
|-------------------|-------------------|
|-------------------|--1----------------|
|--4----------------|-------------------|


  H.           E  E     Q.     Q.     Q       E  E  E  E  E  E  E  E   
---------------------|--5------------------|--------------------------|
------------------5--|---------5-----------|--------------------------|
--3------------L-----|----------------3----|--------------------------|
---------------------|---------------------|--4--4--4--4--4--4--4--4--|


  E  E  E  E  E  E  E  E     E  E  E  E  E  E  E  E   
--------------------------|--------------------------|
--------------------------|--------------------------|
--1--1--1--1--1--1--1--1--|--3--3--3--3--3--3--3--3--|
--------------------------|--------------------------|


                              Chorus 3
  E  E  E  E  E  E  E  E       Q.     E  E  E  Q       Q.     E  E  E  Q     
--------------------------||------------------------|-----------------------|
--------------------------||*-----------------------|-----------------------|
--3--3--3--3--3--3--3--3--||*-----------------------|--1------1--L--1--1----|
--------------------------||---4------4--L--4--4----|-----------------------|

                                                    Outro
  Q.     E  E  E  Q       Q.     E  E  E  Q          Q.     E  H         
-----------------------|------------------------||----------------------|
-----------------------|-----------------------*||*---------------------|
--3------3--L--3--3----|--3------3--L--3--3----*||*--3------------------|
-----------------------|------------------------||----------4--L--------|


  W                   Q.     E  H           E  Q.     E  Q.      4x
-------------------|---------------------|-----------------------||
-------------------|---------------------|----------------------*||
-------------------|--3------------------|---------------6------*||
--L----------------|---------4--L--------|--L--3------L----------||


  W                   W                  
-------------------|-------------------||
-------------------|-------------------||
--3----------------|--L----------------||
-------------------|-------------------||




Duration Legend
---------------
W - whole
H - half
Q - quarter
E - 8th
S - 16th
T - 32nd
X - 64th
. - note dotted
|-n-|  - n-tuplets


Tablature Legend
----------------
L - tied note
x - dead note
g - grace note
(n) - ghost note
> - accentuded note
NH - natural harmonic
AH - artificial harmonic
TH - tapped harmonic
SH - semi harmonic
PH - pitch harmonic
h - hammer on
p - pull off
b - bend
br - bendRelease
pb - preBend
pbr - preBendRelease
brb - bendReleaseBend
\n/ - tremolo bar dip
\n - tremolo bar dive
-/n - tremolo bar Release up
/n\ - tremolo bar inverted dip
/n - tremolo bar return
-\n - tremolo bar Release down
S - shift slide
s - legato slide
/ -  slide into from below or out of upwards
\ -  slide into from above or out of downwards
~ - vibrato
W - wide vibrato
tr - trill
TP - tremolo picking
T - tapping
S - slap
P - pop
< - fade in
^ - brush up
v - brush down
Добавлено: 29.03.2016
Другие материалы по этой песне:

Страница создана 29.03.2016
http://primanota.ru/sound-of-contact/pale-blue-dot-chords.htm
Привет, Гость.
Предлагаем пройти революционный курс по гитаре.
Подарок от PrimaNota.Ru, забирай!