PrimaNota.ru - самый крупный в мире бесплатный архив песенных текстов, аккордов, табулатур и нот


Sound Of Contact - Beyond Illumination - бас-таба, видео

Регистрация Запомнить меня
Войти через:  Facebook Google Twitter Vk Yandex Mail.ru

Sound Of Contact - Beyond Illumination - бас-таба, видео

Печатать
Просмотров: 26
                  Sound of Contact - Beyond Illumination                               

Beautiful song! The bass is a bit hard to discern in the mix, so listen hard for the rhythm.




           (0.21) Intro

             E.  S E  E  E  E  S S E     E.  S E  E  E  E  S S E   
G||-------|---------------------------|---------------------------|
D||-------|---------------------------|---------------------------|
A||-------|--3---3----3--L-----3-3----|--2---2----2--L--5--2-2-5--|
E||-------|--------3--------3------3--|--------3------------------|


  E.  S E  E  E  E  S S E     E.  S E  E  E  E  S S E   
---------------------------|---------------------------|
---------------------------|---------------------------|
--3---3----3--L-----3-3----|--2---2----2--L--5--2-2-5--|
--------3--------3------3--|--------3------------------|


  E.  S E  E  E  E  S S E     E.  S E  E  E  E  S S E   
---------------------------|---------------------------|
---------------------------|---------------------------|
--3---3----3--L-----3-3----|--2---2----2--L--5--2-2-5--|
--------3--------3------3--|--------3------------------|

                                                  (0.43) Verse 1

  E.  E.  E  E  E  S S E     Q.     E  H             E  S S E  E  E  E  E  E   
--------------------------|---------------------||----------------------------|
--7-------7--L-----7-7----|--5------5--L--------||*---------------------------|
------7---------7---------|---------------------||*--7------------------------|
--------------------------|---------------------||------7-7-7--7-----7--8--7--|

                              (1.16) Prechorus 1

  E  S S E  E  E  E  E   E   8x   H        H           H        H         3x
-----------------------------||---------------------|---------------------||
----------------------------*||*--------------------|--------------------*||
--7-------------------------*||*--------------------|--7--------5--------*||
-----7-7-7--7-----7--5S--7---||---8--------7--------|---------------------||

(1.32) Chorus 1

  E.  S E  E  E  E  S S E     E.  S E  E  E  E  S S E   
---------------------------|---------------------------|
---------------------------|---------------------------|
--3---3----3--L-----3-3----|--2---2----2--L--5--2-2-5--|
--------3--------3------3--|--------3------------------|


  E.  S E  E  E  E  S S E     E.  S E  E  E  E  S S E   
---------------------------|---------------------------|
---------------------------|---------------------------|
--3---3----3--L-----3-3----|--2---2----2--L--5--2-2-5--|
--------3--------3------3--|--------3------------------|


  E.  S E  E  E  E  S S E     E.  S E  E  E  E  S S E     E.  E.  E  H         
---------------------------|---------------------------|----------------------|
---------------------------|---------------------------|----------------------|
--3---3----3--L-----3-3----|--2---2----2--L--5--2-2-5--|--0-------0--L--------|
--------3--------3------3--|--------3------------------|------0---------------|

                      (1.54) Verse 1
 
  E.  E.  E  H             E  S S E  E  E  E  E  E   
----------------------||----------------------------|
----------------------||*---------------------------|
----------------------||*--7------------------------|
--3---3---3--L--------||------7-7-7--7-----7--8--7--|




  E  S S E  E  E  E  E   E   7x  E  S S E  E  H           W                 
-----------------------------||------------------------|-------------------|
----------------------------*||------------------------|-------------------|
--7-------------------------*||--7---------------------|-------------------|
-----7-7-7--7-----7--5S--7---||-----7-7-7--7-----------|-------------------|


                    (2.27) Prechorus 2

                        H        H           H        H         
-------------------||---------------------|--------------------|
-------------------||*--------------------|--------------------|
-------------------||*--------------------|--7--------5--------|
-------------------||---8--------7--------|--------------------|


(2.43) Chorus 2

  E.  S E  E  E  E  S S E     E.  S E  E  E  E  S S E   
---------------------------|---------------------------|
---------------------------|---------------------------|
--3---3----3--L-----3-3----|--2---2----2--L--5--2-2-5--|
--------3--------3------3--|--------3------------------|


  E.  S E  E  E  E  S S E     E.  S E  E  E  E  S S E   
---------------------------|---------------------------|
---------------------------|---------------------------|
--3---3----3--L-----3-3----|--2---2----2--L--5--2-2-5--|
--------3--------3------3--|--------3------------------|


  E.  S E  E  E  E  S S E     E.  S E  E  E  E  S S E     E.  E.  E  Q    Q     
---------------------------|---------------------------|-----------------------|
---------------------------|---------------------------|--7---7------7---------|
--3---3----3--L-----3-3----|--2---2----2--L--5--2-2-5--|----------7-------7----|
--------3--------3------3--|--------3------------------|-----------------------|


                          (3.05) Verse 3 [Female vocals]

  E.  E.  E  E  E  Q         E  S S E  E  E  E  E  E   
------------------------||----------------------------|
--5---5------5-----5----||*---------------------------|
----------5-----5-------||*--7------------------------|
------------------------||------7-7-7--7-----7--8--7--|

                                 (3.38) Bridge

  E  S S E  E  E  E  E   E   8x  E.  E.  E  H           E.  E.  E  H         
-----------------------------||----------------------|----------------------|
----------------------------*||--3-------3--L--------|--1-------1--L--------|
--7-------------------------*||------3---------------|------1---------------|
-----7-7-7--7-----7--5S--7---||----------------------|----------------------|


  Q.     S S E  E  Q       E.  E.  E  H           Q.     E  H         
--3----------3-----3----|----------------------|------------5--------|
---------3-5----3-------|--5-------5--L--------|---------5-----------|
------------------------|------5---------------|--3------------------|
------------------------|----------------------|---------------------|


                                                 (4.02) Chorus 3: Play four times!

                                                    E.  S E  E  E  E  S S E   
-----------|-----------|-----------|-----------||----------------------------|
-----------|-----------|-----------|-----------||*---------------------------|
-----------|-----------|-----------|-----------||*--3---3----3--L-----3-3----|
-----------|-----------|-----------|-----------||---------3--------3------3--|


  E.  S E  E  E  E  S S E     E.  S E  E  E  E  S S E   
---------------------------|---------------------------|
---------------------------|---------------------------|
--2---2----2--L--5--2-2-5--|--3---3----3--L-----3-3----|
--------3------------------|--------3--------3------3--|


  E.  S E  E  E  E  S S E     E.  S E  E  E  E  S S E   
---------------------------|---------------------------|
---------------------------|---------------------------|
--2---2----2--L--5--2-2-5--|--3---3----3--L-----3-3----|
--------3------------------|--------3--------3------3--|


  E.  S E  E  E  E  S S E     E.  E.  E  E  E  Q       E.  E.  E  H         4x
---------------------------|------------------------|-----------------------||
---------------------------|--7-------7--9--7-------|--5-------------------*||
--2---2----2--L--5--2-2-5--|------7------------7----|------5---------------*||
--------3------------------|------------------------|----------3--L---------||

The bassist does some subtle variations here. I've just notated the first of the last four choruses 
in the interest of legibility, but keep an ear out!

(5.30) Outro

  W                   W                   W                 
-------------------|-------------------|-------------------|
-------------------|-------------------|-------------------|
--3----------------|--L----------------|--L----------------|
-------------------|-------------------|-------------------|


  W                  
-------------------||
-------------------||
--L----------------||
-------------------||




Duration Legend
---------------
W - whole
H - half
Q - quarter
E - 8th
S - 16th
T - 32nd
X - 64th
. - note dotted
|-n-|  - n-tuplets


Tablature Legend
----------------
L - tied note
x - dead note
g - grace note
(n) - ghost note
> - accentuded note
NH - natural harmonic
AH - artificial harmonic
TH - tapped harmonic
SH - semi harmonic
PH - pitch harmonic
h - hammer on
p - pull off
b - bend
br - bendRelease
pb - preBend
pbr - preBendRelease
brb - bendReleaseBend
\n/ - tremolo bar dip
\n - tremolo bar dive
-/n - tremolo bar Release up
/n\ - tremolo bar inverted dip
/n - tremolo bar return
-\n - tremolo bar Release down
S - shift slide
s - legato slide
/ -  slide into from below or out of upwards
\ -  slide into from above or out of downwards
~ - vibrato
W - wide vibrato
tr - trill
TP - tremolo picking
T - tapping
S - slap
P - pop
< - fade in
^ - brush up
v - brush down
Добавлено: 29.03.2016
Вам также может быть интересно:
Другие материалы по этой песне:

Страница создана 29.03.2016
http://primanota.ru/sound-of-contact/beyond-illumination-chords.htm
Привет, Гость.
Предлагаем пройти революционный курс по гитаре.
Подарок от PrimaNota.Ru, забирай!