PrimaNota.ru - самый крупный в мире бесплатный архив песенных текстов, аккордов, табулатур и нот


Sound Horizon - Guren No Yumiya Shingeki No Kyojin Opening 1 - бас-таба, видео

Регистрация Запомнить меня
Войти через:  Facebook Google Twitter Vk Yandex Mail.ru

Sound Horizon - Guren No Yumiya Shingeki No Kyojin Opening 1 - бас-таба, видео

Печатать
Просмотров: 335
Tabs not made by me. Credits go to Davie504 from YouTube

I just played it and think they are perfect and I didn't found any other good bass Tab.
Enjoy!

( Tabs by Davie504 played here: www.youtube.com/watch?v=XvX5GwSOsZo )



TABS (By Davie504):

INTRO

G ----------9-8-------------9-8------­------|
D --11-11-------9--11---1-------9----------|
A -----------------------------------------|
E -----------------------------------------|

G -13-----11--------------------------13--­--11----------------------------|
D -----14-----13--14-11-13-9-------------14--­---13-14-13-11-9-------------|
A ------------------------------------------------------------------------|
E ------------------------------------------------------------------------|

G -16-----14---------------------------16---14----------------------------|
D -----17-----16--17-14-16-12-------------17-----16--17--14-13------------|
A ------------------------------------------------------------------------|
E ------------------------------------------------------------------------|


VERSE

G ---8-----6----------------8------6------­------------|
D ------9-----8-9-6-8-4-------9------8-9-8-­6-5--------| x7
A ----------------------------------------------------|
E ----------------------------------------------------|

G ---8-----6----------------8------6------­-------8/15-15-15---|
D -------9-----8-9-6-8-4------9------8-9-8-­-------------------|
A ------------------------------------------------------------|
E ------------------------------------------------------------|


PRE-CHORUS 

G --6--6-6--8-9-8-6-5----6---8-9-10-11---1­1------11---10-9---------11-11-----11---­---11-----11-10--------------|
D ------------------------------------------­---------------11------x--------9--9----­-------12-----12------12---|
A -------------------------------------------------------------------------------------------------------------|
E -------------------------------------------------------------------------------------------------------------|


CHORUS

G -------9-8---------------9-8----------9-­8---------9-9-8-8-9-8-|
D --11-------9-9/11-11---------9-9/11------9-­11-----------------|
A --------------------------------------------------------------|
E --------------------------------------------------------------|

G -------9-8---------------9-8----------9-­8---------11/13--11-8-|
D --11-------9-9/11-11---------9-9/11------9-­11-----------------|
A --------------------------------------------------------------|
E --------------------------------------------------------------|

G -------9-8---------------9-8----------9-­8---------9-9-8-8-9-8-|
D --11-------9-9/11-11---------9-9/11------9-­11-----------------|
A --------------------------------------------------------------|
E --------------------------------------------------------------|

G -------9-8---------------9-8----------9-­8--------|
D --11-------9-9/11-11---------9-9/11------9-­11----|
A -------------------------------------------------|
E -------------------------------------------------|


OUTRO

G -13-----11--------------------------13--­-11-----------------------------|
D -----14------13--14-11-13-9------------14--­----13-14-13-11-9------------|
A ------------------------------------------------------------------------|
E ------------------------------------------------------------------------|

G -16-----14--------------------------16---­-14----------------------------|
D -----17------16-17-14-16-12------------17-----­-16--17--14-13------------| x2
A ------------------------------------------------------------------------|
E ------------------------------------------------------------------------|
-
G -19-----17--------------------------19----17----------------------------|
D ----20-------19-20--17--19-15------.---20---­---19--20-19-17-------------|
A ------------------------------------------------------------------------|
E ------------------------------------------------------------------------|
Добавлено: 13.08.2015
Вам также может быть интересно:
Другие материалы по этой песне:
  • Аккорды и текст

Страница создана 13.08.2015
http://primanota.ru/sound-horizon/guren-no-yumiya-shingeki-no-kyojin-opening-1-chords.htm
Привет, Гость.
Предлагаем пройти революционный курс по гитаре.
Подарок от PrimaNota.Ru, забирай!