PrimaNota.ru - самый крупный в мире бесплатный архив песенных текстов, аккордов, табулатур и нот


Soulfood 76 - Oval - таба, видео

Регистрация Запомнить меня
Войти через:  Facebook Google Twitter Vk Yandex Mail.ru

Soulfood 76 - Oval - таба, видео

Печатать
Просмотров: 67
		   Oval
Soulfood 76
Tabbed by ToastNight@aol.com

----0-0-0-0-3-----------------------------------------------------------------
----1-1-1-0-3-----------------------------------------------------------------
----0-0-0-0-0-----0-------0--------0--------0-------0-------0-----------9-----
----2-2-2-2-0--------------------------------------------------------10-------
----3-3-3-3-2---7---7---7---7---10---10---9---9---7---7---7---7---10----------
----x-x-x-x-3-5-------5-------8---------7-------5-------5-------8---------7---
  word: remeber me this way..., since you've been gone, read alot......       

-------0-0--------------------------------------------------------------------
-------1-0--------------------------------------------------------------------
-----8-0-0--------------------------------------------------------------------
---9---2-2--------------------------------------------------------------------
-9-----3-3--------------------------------------------------------------------
-------x-x--------------------------------------------------------------------
       If I fell into the air, would you catch a glimpes of me?....           

-0-0-0-0----------------------------------------------------------------------
-0-1-0-1----------------------------------------------------------------------
-1-0-1-0----------------------------------------------------------------------
-2-2-2-2----------------------------------------------------------------------
-2-3-2-3----------------------------------------------------------------------
-0-x-0-x----------------------------------------------------------------------
    c=01023x, cmaj7=00023x, e=001220,                                         
     
Добавлено: 16.08.2013
Другие материалы по этой песне:
  • Аккорды и текст

Страница создана 16.08.2013
http://primanota.ru/soulfood-76/oval-chords.htm
Привет, Гость.
Предлагаем пройти революционный курс по гитаре.
Подарок от PrimaNota.Ru, забирай!