PrimaNota.ru - самый крупный в мире бесплатный архив песенных текстов, аккордов, табулатур и нот


Soulfood 76 - Heavy - таба, видео

Регистрация Запомнить меня
Войти через:  Facebook Google Twitter Vk Yandex Mail.ru

Soulfood 76 - Heavy - таба, видео

Печатать
Просмотров: 60
		   Song: Heavy
Artist: Soulfood76
Album: Velour
    (c) Freedom Records
Tabbed by Bryan (baxe@misi.net)


[Intro]
E|--0--0----0----|--0---------0-------------------5-7----|--0----------0---------|
A|---------------|----5h7--7-7--7-7-7--5-5-5-5-5------5--|----5h7--7-7---7-7--5~-|
D|-------7----7--|---------------------------------------|-----------------------|
G|-------7----7--|---------------------------------------|-----------------------|
B|-------7----7--|---------------------------------------|-----------------------|
e|---------------|---------------------------------------|-----------------------|


E|--0-----------0------------------5-7----|------3------------0--5--|
A|-----5h7--7-7---7-7-7--5-5-5-5-5-----5--|------5------------2--5--|
D|----------------------------------------|------5------------2--7--|
G|----------------------------------------|----------------------7--|
B|----------------------------------------|-------------------------|
e|----------------------------------------|-------------------------|
   The son of thunders in my eyes,           Cause you are so heavy!
   feel the presence of your willing
   spirit come into this troubled world


E|--0-----------0------------------5-7----|
A|-----5h7--7-7---7-7-7--5-5-5-5-5-----5--|
D|----------------------------------------|
G|----------------------------------------|
B|----------------------------------------|
e|----------------------------------------|
    Theres a need for your mercy, everyday
    im faced with my foolishness.  I wanna
    tell of your greatness

                              *
E|--3----------------0--5---|--0-0----0-0----0-0----0-0----|
A|--5----------------2--5---|------------------------------|
D|--5----------------2--7---|------7------7------7------7--|
G|----------------------7---|------7------7------7------7--|
B|--------------------------|------7------7------7------7--|
e|--------------------------|------------------------------|
   Cause you are soo heavy!


E|----5-4-3--|-----3-3-3----5-4-3------------------------|
A|--3--------|--3--5-5-5--3------------------------------|
D|-----------|--5--5-5-5---------------------------------|
G|-----------|--5----------------------------------------|
B|-----------|-------------------------------------------|
e|-----------|-------------------------------------------|
                please surrender who you are to the
		loving God above I remember the days
 		gone by, ive seen all that you have done


E|--3--5-----5-----5--4-3--|--0-0---0---0-0---0---|
A|--------3-----3----------|----------------------|
D|-------------------------|------7---7-----7---7-|
G|-------------------------|------7---7-----7---7-|
B|-------------------------|------7---7-----7---7-|
e|-------------------------|----------------------|

-repeat intro-

[ending] (at *)
E|--0-0----0-0-----0--5--7-----7--5--3--|
A|--------------------------5-----------|
D|------7------7------------------------|
G|------7------7------------------------|
B|------7------7------------------------|
e|--------------------------------------|


     
Добавлено: 03.06.2013
Вам также может быть интересно:
Другие материалы по этой песне:
  • Аккорды и текст

Страница создана 03.06.2013
http://primanota.ru/soulfood-76/heavy-chords.htm
Привет, Гость.
Предлагаем пройти революционный курс по гитаре.
Подарок от PrimaNota.Ru, забирай!