PrimaNota.ru - самый крупный в мире бесплатный архив песенных текстов, аккордов, табулатур и нот


Soulfood 76 - Free - таба, видео

Регистрация Запомнить меня
Войти через:  Facebook Google Twitter Vk Yandex Mail.ru

Soulfood 76 - Free - таба, видео

Печатать
Просмотров: 86
Уроки эстрадного вокала в Санкт-Петербурге
		   Author/Artist: Soulfood 76
Title: Free
Album: Velour
Transcribed by: James Brewer
Email: fzandura@raex.com

A pretty simle funk rock song

-----------|--------------------------------|---------------------------------
-----------|--------------------------------|---------------------------------
----5------|-----5--4-4--5-5--6-6--7-7--8-8-|---------------------------------
-2--5-4--3-|--2--5--x-x--x-x--x-x--x-x--x-x-|---------------------------------
-2--3-4--3-|--2--3--2-2--3-3--4-4--5-5--6-6-|---------------------------------
-0----2--1-|--0-----------------------------|---------------------------------
 This is how the Beggining Starts                                             

-------------------------|---------------------|------------------------------
----8--------------------|---8-----------------|------------------------------
----7--------------------|---7-----------------|------------------------------
----6--8--9--------5---5-|---6--8--9-----------|----------------------------2-
----7--8--9--2/5h7---7---|---7--8--9----5----5-|------------------------------
--0----6--7--------------|-0----6--7--7----7---|------------------------------
 Verse Riff (7678 is E7#9)                                                    

------------|-----------------------------------------------------------------
------------|-----------------------------------------------------------------
----5-------|-----------------------------------------------------------------
-2--5--4--3-|-----------------------------------------------------------------
-2--3--4--3-|-----------------------------------------------------------------
-0-----2--1-|-----------------------------------------------------------------
 Chorus: Set Me Free!!!!!!                                                    

-----------------------------------|------------------------------------------
-----------------------------------|------------------------------------------
-----------------------------------|------------------------------------------
-2-2-2-2---------------------------|------------------------------------------
-2-2-2-2---------------------------|-5h7-7------------------------------------
-0-0-0-0---------------------------|-------7-6-5-3-0-3-5-5b-------------------
 play this litlle ditty behind this Breakdown Riff    (b is for bend)         

----------------||------------------------------------------------------------
----------------||------------------------------------------------------------
----------------||------------------------------------------------------------
----------------||------------------------------------------------------------
-5h7-5----------||------------------------------------------------------------
-------7-6-5-3v-||------------------------------------------------------------
 Sorry no solo but end it with this variation                                 

     
Добавлено: 04.08.2013
Другие материалы по этой песне:
  • Аккорды и текст

Страница создана 04.08.2013
http://primanota.ru/soulfood-76/free-chords.htm
Привет, Гость.
Предлагаем пройти революционный курс по гитаре.
Подарок от PrimaNota.Ru, забирай!