PrimaNota.ru - самый крупный в мире бесплатный архив песенных текстов, аккордов, табулатур и нот


Soulfood 76 - Black Light Poster - таба, видео

Регистрация Запомнить меня
Войти через:  Facebook Google Twitter Vk Yandex Mail.ru

Soulfood 76 - Black Light Poster - таба, видео

Печатать
Просмотров: 84
Уроки эстрадного вокала в Санкт-Петербурге
		   Song: Black Light Poster
Artist:  Soulfood 76
Album: Original Soundtrack
   (c) Freedom Records
Tabbed by Bryan (baxe@misi.net)


  [Intro]                     [Verse]
E|---------|--X---X---X------|--X---X---X--|
A|--0------|--X---X---X------|--X---X---X--|
D|---2-----|--2---3---5------|--2---3---5--|
G|----1----|--1---2---4------|--1---2---4--|
B|-----2---|--2---1---3------|--2---1---3--|
e|------0--|--0---1---3------|--0---1---3--|

[Chorus]           [Bridge1]
E|--X--3--X--3--|--X--X--X--X--|
A|--5--5--1--5--|--7--6--5--4--|
D|--7--5--3--5--|--9--8--7--6--|
G|--7-----3-----|--9--8--7--6--|
B|--------------|--------------|
e|--------------|--------------|

[Bridge2]  (1st and 2nd time thru)    (3rd)              (4th)
E|--X--|--X-X-X-X-X-X-X-X-----------|--X-X-X-X--X--X---|--X--X--|
A|--3--|--5-6-7-5-6-7-5-6-----------|--5-6-7-8--9--10--|--7--5--|
D|--5--|--7-8-9-7-8-9-7-8-----------|--7-8-9-10-11-12--|--9--7--|
G|--5--|--7-8-9-7-8-9-7-8-----------|--7-8-9-10-11-12--|--9--7--|
B|-----|----------------------------|------------------|--------|
e|-----|----------------------------|------------------|--------|

[Verse Lead]
E|------------------------------------------|--------------------|
A|------------------------------------------|--------------------|
D|------------------------------------------|--------------------|
G|------------------------------------------|-------5---------7--|
B|--9--5--5/3--3--2/3--2/3--2/3--3/1--1--3--|--3/5----5-7---7----|
e|------------------------------------------|-------------7------|

E|-----------------------------|
A|-----------------------------|
D|-----7--5------------5h7--7--|
G|--5--------7b--5h7-7---------|
B|-----------------------------|
e|-----------------------------|

[Chorus Lead]
E|-----------------------------|
A|--5--------------1-----------|
D|-----7-----7--------3-----3--|
G|--------7--------------3-----|
B|-----------------------------|
e|-----------------------------|

[Bridge1 Lead]

E|--------------------------------------|
A|--------------------------------------|
D|--(notes played imbetween the chords)-|
G|--------------------------------------|
B|--3--2--3--2--------------------------|
e|--------------------------------------|

[Bridge2 Lead]  (4th only)
E|---------------------------------------|
A|---------------------------------------|
D|--(notes played imbetween the chords)--|
G|---------------------------------------|
B|--3--2---------------------------------|
e|---------------------------------------|

[Ending Lead]
E|------------------------------------------|------------------------|
A|------------------------------------------|------------------------|
D|------------------------------------------|------------------------|
G|------------------------------------------|------------------------|
B|--9--5--5/3--3--2/3--2/3--2/3--3/1--1--3--|--9--10--11--5--5/3--3--|
e|------------------------------------------|------------------------|

E|-----------------------|--------------------|-----------------------------|
A|-----------------------|--------------------|-----------------------------|
D|-----------------------|--------------------|-----7--5-------------5h7-7--|
G|-----------------------|-------5---------7--|--5--------7b--5h7-7---------|
B|--2/3--2/3--2/3--1--3--|--3/5----5-7---7----|-----------------------------|
e|-----------------------|-------------7------|-----------------------------|
     
Добавлено: 24.06.2013
Другие материалы по этой песне:
  • Аккорды и текст

Страница создана 24.06.2013
http://primanota.ru/soulfood-76/black-light-poster-chords.htm
Привет, Гость.
Предлагаем пройти революционный курс по гитаре.
Подарок от PrimaNota.Ru, забирай!