PrimaNota.ru - самый крупный в мире бесплатный архив песенных текстов, аккордов, табулатур и нот


Soulfly - I Believe - текст песни, таба, бас-таба, видео

Регистрация Запомнить меня
Войти через:  Facebook Google Twitter Vk Yandex Mail.ru

Soulfly - I Believe - текст песни, таба, бас-таба, видео

Печатать
Просмотров: 120
Artist: Soulfly
Album: Prophesy
Song: I Believe
Tabber: Me
Tuning: B,F#,B,E,G#,C#

Key: . = Palm Mute
     \ = Slide Down
    tr = Tremolo Picking
    br = Bend release

Intro:[0:00] Clean, Guitar 1
[-----------------]
[-----1-------1---]
[---1---1-0-1---1-]
[-0---------------]x4
[-----------------]
[-----------------]

Chorus:[0:13] Heavy Dist. Both Guitars
[---------------]         [------------------]
[---------------]         [------------------]
[---------------]         [------------------]
[---------------]x3       [------------------]
[-0-6-0---0-6-0-]         [-0-6-0---0-6-13\\-]
[-0-6-0---0-6-0-]         [-0-6-0---0-6-13\\-]

Clean, Guitar 1           Guitar 2: H.Dist
[-----------------]       [-----------------]
[-----1-------1---]       [-----------------]
[---1---1-0-1---1-]       [-----------------]
[-0---------------]x4     [-----------------]x4
[-----------------]       [-0-6-0---0-6-0---]
[-----------------]       [-0-6-0---0-6-0---]

Post Chorus:[0:27] Guitar 1
[------------------------------------------------------------------------------------------------|
[------------------------------------------------------------------------------------------------|
[-55555555-33333333-66666666-1212121212121212-1111111111111111-1313131313131313-1717171717171717-|
[-xxxxxxxx-xxxxxxxx-xxxxxxxx--x-x-x-x-x-x-x-x-x-x-x-x-x-x-x-x---x-x-x-x-x-x-x-x--x-x-x-x-x-x-x-x-|
[-33333333-11111111-44444444-1010101010101010-9-9-9-9-9-9-9-9--1111111111111111-1515151515151515-|
[------------------------------------------------------------------------------------------------|

---------------------------------------------------------------------------------------]
---------------------------------------------------------------------------------------]
--1515151515151515-1818181818181818-1717171717171717-1515151515151515-1818181818181818-]
---x-x-x-x-x-x-x-x--x-x-x-x-x-x-x-x--x-x-x-x-x-x-x-x--x-x-x-x-x-x-x-x--x-x-x-x-x-x-x-x-]
--1313131313131313-1616161616161616-1515151515151515-1313131313131313-1616161616161616-]
---------------------------------------------------------------------------------------]

Guitar 2:[0:27]
[----------------------------]
[----------------------------]
[-55555555-33333333-66666666-]
[-xxxxxxxx-xxxxxxxx-xxxxxxxx-]x4
[-33333333-11111111-44444444-]
[----------------------------]

            Chorus:[0:40]Both Guitars
[---------------]         [------------------]
[---------------]         [------------------]
[---------------]         [------------------]
[---------------]x3       [------------------]
[-0-6-0---0-6-0-]         [-0-6-0---0-6-13\\-]
[-0-6-0---0-6-0-]         [-0-6-0---0-6-13\\-]

Clean, Guitar 1           Guitar 2: H.Dist
[-----------------]       [-------------------------------]
[-----1-------1---]       [-------------------------------]
[---1---1-0-1---1-]       [-------------------------------]
[-0---------------]x4     [-------------------------------]x4
[-----------------]       [-0-6-0---0-6-0-----------------]
            [-----------------]       [-0-6-0---0-6-0-----]

Post Chorus:[0:54] Guitar 1
[------------------------------------------------------------------------------------------------|
[------------------------------------------------------------------------------------------------|
[-55555555-33333333-66666666-1212121212121212-1111111111111111-1313131313131313-1717171717171717-|
[-xxxxxxxx-xxxxxxxx-xxxxxxxx--x-x-x-x-x-x-x-x-x-x-x-x-x-x-x-x---x-x-x-x-x-x-x-x--x-x-x-x-x-x-x-x-|
[-33333333-11111111-44444444-1010101010101010-9-9-9-9-9-9-9-9--1111111111111111-1515151515151515-|
[------------------------------------------------------------------------------------------------|

---------------------------------------------------------------------------------------]
---------------------------------------------------------------------------------------]
--1515151515151515-1818181818181818-1717171717171717-1515151515151515-1818181818181818-]
---x-x-x-x-x-x-x-x--x-x-x-x-x-x-x-x--x-x-x-x-x-x-x-x--x-x-x-x-x-x-x-x--x-x-x-x-x-x-x-x-]
--1313131313131313-1616161616161616-1515151515151515-1313131313131313-1616161616161616-]
---------------------------------------------------------------------------------------]

Guitar 2:[0:54]
[----------------------------]
[----------------------------]
[-55555555-33333333-66666666-]
[-xxxxxxxx-xxxxxxxx-xxxxxxxx-]x4
[-33333333-11111111-44444444-]
[----------------------------]

Verse:[1:07] Clean Both Guitars
[-------------]
[----16----15-]
[-------------]
[-15----14----]x8
[-------------]
[-------------]

Guitar 1:[1:34] With wah
[--------22tr----24tr---23tr-------------------------------------]
[----------------------------------------------------------------]
[-17tr-------------------------15-17tr---14tr--15tr--17-17-17-17-]
[-----------------------------------------x-----x-----x--x--x--x-]
[----------------------------------------12tr--13tr--15-15-15-15-]
[----------------------------------------------------------------]

Guitar 2:
[---------------]
[---------------]
[---------------]
[---------------]x8
[-0-0-0-0-0-0-7-]
[-0-0-0-0-0-0-7-]

Chorus:[1:47]Both Guitars
[---------------]         [------------------]
[---------------]         [------------------]
[---------------]         [------------------]
[---------------]x3       [------------------]
[-0-6-0---0-6-0-]         [-0-6-0---0-6-13\\-]
[-0-6-0---0-6-0-]         [-0-6-0---0-6-13\\-]

Clean, Guitar 1           Guitar 2: H.Dist
[-----------------]       [-----------------]
[-----1-------1---]       [-----------------]
[---1---1-0-1---1-]       [-----------------]
[-0---------------]x4     [-----------------]x4
[-----------------]       [-0-6-0---0-6-0---]
[-----------------]       [-0-6-0---0-6-0---]

Post Chorus:[2:01] Guitar 1
[------------------------------------------------------------------------------------------------|
[------------------------------------------------------------------------------------------------|
[-55555555-33333333-66666666-1212121212121212-1111111111111111-1313131313131313-1717171717171717-|
[-xxxxxxxx-xxxxxxxx-xxxxxxxx--x-x-x-x-x-x-x-x-x-x-x-x-x-x-x-x---x-x-x-x-x-x-x-x--x-x-x-x-x-x-x-x-|
[-33333333-11111111-44444444-1010101010101010-9-9-9-9-9-9-9-9--1111111111111111-1515151515151515-|
[------------------------------------------------------------------------------------------------|

---------------------------------------------------------------------------------------]
---------------------------------------------------------------------------------------]
--1515151515151515-1818181818181818-1717171717171717-1515151515151515-1818181818181818-]
---x-x-x-x-x-x-x-x--x-x-x-x-x-x-x-x--x-x-x-x-x-x-x-x--x-x-x-x-x-x-x-x--x-x-x-x-x-x-x-x-]
--1313131313131313-1616161616161616-1515151515151515-1313131313131313-1616161616161616-]
---------------------------------------------------------------------------------------]

Guitar 2:[2:01]
[----------------------------]
[----------------------------]
[-55555555-33333333-66666666-]
[-xxxxxxxx-xxxxxxxx-xxxxxxxx-]x4
[-33333333-11111111-44444444-]
[----------------------------]

Chorus:[2:14]Both Guitars
[---------------]         [------------------]
[---------------]         [------------------]
[---------------]         [------------------]
[---------------]x3       [------------------]
[-0-6-0---0-6-0-]         [-0-6-0---0-6-13\\-]
[-0-6-0---0-6-0-]         [-0-6-0---0-6-13\\-]

Clean, Guitar 1           Guitar 2: H.Dist
[-----------------]       [-----------------]
[-----1-------1---]       [-----------------]
[---1---1-0-1---1-]       [-----------------]
[-0---------------]x4     [-----------------]x4
[-----------------]       [-0-6-0---0-6-0---]
[-----------------]       [-0-6-0---0-6-0---]

Post Chorus:[2:27] Guitar 1
[------------------------------------------------------------------------------------------------|
[------------------------------------------------------------------------------------------------|
[-55555555-33333333-66666666-1212121212121212-1111111111111111-1313131313131313-1717171717171717-|
[-xxxxxxxx-xxxxxxxx-xxxxxxxx--x-x-x-x-x-x-x-x-x-x-x-x-x-x-x-x---x-x-x-x-x-x-x-x--x-x-x-x-x-x-x-x-|
[-33333333-11111111-44444444-1010101010101010-9-9-9-9-9-9-9-9--1111111111111111-1515151515151515-|
[------------------------------------------------------------------------------------------------|

---------------------------------------------------------------------------------------]
---------------------------------------------------------------------------------------]
--1515151515151515-1818181818181818-1717171717171717-1515151515151515-1818181818181818-]
---x-x-x-x-x-x-x-x--x-x-x-x-x-x-x-x--x-x-x-x-x-x-x-x--x-x-x-x-x-x-x-x--x-x-x-x-x-x-x-x-]
--1313131313131313-1616161616161616-1515151515151515-1313131313131313-1616161616161616-]
---------------------------------------------------------------------------------------]

Guitar 2:[2:01]
[----------------------------]
[----------------------------]
[-55555555-33333333-66666666-]
[-xxxxxxxx-xxxxxxxx-xxxxxxxx-]x4
[-33333333-11111111-44444444-]
[----------------------------]

Verse:[2:41] Clean Both Guitars
[-------------]
[----16----15-]
[-------------]
[-15----14----]x16
[-------------]
[-------------]

Heavy Bridge:[3:34] Both Guitars
[--------------------------]
[--------------------------]
[--------------------------]
[--------------------------]x4
[-0-0-0--1--0--4-0-0-5-0-0-]
[-0-0-0--1—-0--4-0-0-5-0-0-]

Guitar 1:[3:48] with wah
[-------------------------15tr---------14tr---------]
[-14tr--------18tr----------------------------------]
[---------------------------------------------------]
[---------------------------------------------------]
[---------------------------------------------------]
[---------------------------------------------------]

Guitar 2:[3:48]
[---------------------------]
[---------------------------]
[---------------------------]
[---------------------------]x4
[-0-0-0-0-1--0--4-0-0-5-0-0-]
[-0-0-0-0-1—-0--4-0-0-5-0-0-]
  . . . .


Guitar 1:[4:01]           Guitar 2:[4:01]
[-14tr------------]      [------------------]
[-----------------]      [------------------]
[-------------4br-]      [------------------]
[-----------------]      [------------------]
[-----------------]      [-0-0-0-0-1-0------]
[-----------------]      [-0-0-0-0-1-0-6br--]
                           . . . .

Guitar 1:                    Guitar 2:
[------------------]        [------------------]
[------------------]        [------------------]
[-------------4br--]        [------------------]
[------------------]x7      [------------------]x7
[-0-0-0-0-1-0------]        [-0-0-0-0-1-0------]
[-0-0-0-0-1-0------]        [-0-0-0-0-1-0-6br--]
  . . . .                     . . . .

Both Guitars:[4:27]
[-------------]
[-------------]
[-------------]
[-------------]
[-0-0-0-0-1-0-]
[-0-0-0-0-1-0-]
  . . . .

Soft Ending:[4:32]
[----------------------------------------------------------------------------]
[-----------------------------14-14-13-13-13---------------------------------]
[-----------10-10-10-11-11-11----------------13-13-13------------------------]
[-11-11-----------------------------------------------11-11------------------]x12
[-----------------------------------------------------------1313131313131313-]
[----------------------------------------------------------------------------]
  .  .       .  .  .  .  .  .                 .  .  .  .  .  . . . . . . . .
Добавлено: 06.08.2013
Другие материалы по этой песне:
  • Аккорды и текст

Страница создана 06.08.2013
http://primanota.ru/soulfly/i-believe-chords.htm
Привет, Гость.
Предлагаем пройти революционный курс по гитаре.
Подарок от PrimaNota.Ru, забирай!