PrimaNota.ru - самый крупный в мире бесплатный архив песенных текстов, аккордов, табулатур и нот


Soulfly - Carved Inside - текст песни, таба, видео

Регистрация Запомнить меня
Войти через:  Facebook Google Twitter Vk Yandex Mail.ru

Soulfly - Carved Inside - текст песни, таба, видео

Печатать
Просмотров: 207
Band:  Soulfly
Album: Dark Ages
Song:  Carved Inside

.  - palm mute           /  - slide up to
  - slide down to       ~  - vibrato
h  - hammer on           b  - Bend
p  - pull off            Suffixes for bend
t  - tap                 f  - full bend    h - half bend
ph - pinched harmonic    q  - quarter bend t - tap bend
*  - see comment         ^  - Hold bend    r release bend
x  - Stuccatto           ~  - vibrato bend
,  - slight palm mute    () - ghost note, sustained note
"  - tremolo note        <> - Trill

Tuning dropped B    B F# B E G# C#

 Intro (first bass and then this)
|-------------------------------------------------------------|
|-------------------------------------------------------------|
|-------------------------------------------------------------|
|-9------------2------3----10-10-10-10--9------------2------3-|
|-7--00000000--0-0000-1-----8--8--8--8--7--00000000--0-0000-1-|
|-------------------------------------------------------------|8x
     ........    ....                      ........    ....

 HEAVY!!!
|--------------------------------|
|--------------------------------|
|--------------------------------|
|--10-10-10-10--9------2------3--|
|---8--8--8--8--7------0------1--|
|------------------0-0----0-0----|4x
                   . .    . .

      (This part isn't right but it's
 Guitar 1    something like this)       Guitar 2
|----------------------------------|  |--------------------------------------|
|----------------------------------|  |--------------------------------------|
|---9---9---9--7--------9--7-------|  |--------------------------------------|
|-----x---x------10--9-------10--9-|  |--------------------------------------|
|----------------------------------|  |--------------------------------------|
|----------------------------------|4x|---0-0-0-0-0-0-0-0-0-0-0-0-0-0-0-0-0--|4x
                                          . . . . . . . . . . . . . . . . .
 Verse
|------------------------------|
|------------------------------|
|------------------------------|
|------------------------------|
|----7---7---11---11---10---8--|
|------0---0----0----0----0----|8x
       .   .    .    .    .

 Chours
|----------------------------------------|
|----------------------------------------|
|----------------------------------------|
|---7--9-9-9--9--9-9-9--9-9-9--9--9-9-9--|
|---5--7-7-7--7--7-7-7--7-7-7--7--7-7-7--|
|----------------------------------------|4x

 Verse 2
|----------------------------------------------|
|----------------------------------------------|
|----------------------------------------------|
|--10-10-10-10--7-7-7-7--10-10-10-10--6-6-6-6--|
|---8--8--8--8--5-5-5-5---8--8--8--8--4-4-4-4--|
|----------------------------------------------|4x

 Solo riff
|------------------------------------------|
|------------------------------------------|
|------------------------------------------|
|--10-10-10-10-----------------------------|
|---8--8--8--8-----------------------------|
|----------------14/-0---14/-0----14/-0----|8x

 Solo
|--------------------------------------------|
|---17~--17~--17~--17~---20~--20~--20~--20~--|
|--------------------------------------------|
|--------------------------------------------|
|--------------------------------------------|
|--------------------------------------------|

|--19t17p12p0--19t17p12p0--19t17p12p0--19t17p12p0---|
|---------------------------------------------------|
|---------------------------------------------------|
|---------------------------------------------------|
|---------------------------------------------------|
|---------------------------------------------------|

|--19t17p12p0--19t17p12p0--20t17p12p0--20t17p12p0---|
|---------------------------------------------------|
|---------------------------------------------------|
|---------------------------------------------------|
|---------------------------------------------------|
|---------------------------------------------------|

|--19t16p12p0--19t16p12p0--19t16p12p0--19t16p12p0---|
|---------------------------------------------------|
|---------------------------------------------------|
|---------------------------------------------------|
|---------------------------------------------------|
|---------------------------------------------------|

|--18t16p12p0--18t16p12p0--18t16p12p0--18t16p12p0---|
|---------------------------------------------------|
|---------------------------------------------------|
|---------------------------------------------------|
|---------------------------------------------------|
|---------------------------------------------------|

 Ending riff
|-------------------------------------|
|-------------------------------------|
|-------------------------------------|
|-------------------------------------|
|--7-----7-----11-----11-----10---8---|
|----0-0---0-0----0-0----0-0----0---0-|4x
     . .   . .    . .    . .    .   .
Добавлено: 06.11.2013
Другие материалы по этой песне:

Страница создана 22.04.2012
http://primanota.ru/soulfly/carved-inside-chords.htm
Привет, Гость.
Предлагаем пройти революционный курс по гитаре.
Подарок от PrimaNota.Ru, забирай!