PrimaNota.ru - самый крупный в мире бесплатный архив песенных текстов, аккордов, табулатур и нот


Soulfly - Blood Fire War Hate - текст песни, таба, видео

Регистрация Запомнить меня
Войти через:  Facebook Google Twitter Vk Yandex Mail.ru

Soulfly - Blood Fire War Hate - текст песни, таба, видео

Печатать
Просмотров: 198
Riff A Palm-Muted
|----------------------------|
|----------------------------|
|----------------------------|
|----------------------------|
|----------------------------|
|-0-0000-0000-00000000000000-|

Riff B
|-------------------------------------------------------------------------------------------|
|-------------------------------------------------------------------------------------------|
|-------------------------------------------------------------------------------------------|
|-------------------------------------------------------------------------------------------|
|-------------------------------------------------------------------------------------------|
|-0-12-10-0-13-13-12-10-0-12-10-0-13-13-12-10-0-12-10-0-13-13-12-10-0-12-10-0-13-13-12-10-0-|

Riff C
|---------------------------------------------------------|
|---------------------------------------------------------|
|---------------------------------------------------------|
|-----------4-------------4-------------4-------------4---|
|-0--0--6-5---6-0--0--6-5---6-0--0--6-5---6-0--0--6-5---6-|
|-0--0----------0--0----------0--0----------0--0----------|

Riff D Verse
|-----------------------------------------------------------------|
|-----------------------------------------------------------------|
|-----------------------------------------------------------------|
|---------------------------------8-------8-------8-------8-------|
|-6-------6-------6-------6-------6-------6-------6-------6-------|
|---0-0-0---0-0-0---0-0-0---0-0-0---0-0-0---0-0-0---0-0-0---0-0-0-|

|---------------------------------------------------------------------------------|
|---------------------------------------------------------------------------------|
|---------------------------------------------------------------------------------|
|-----------------4-------------------4-------------------4-------------------4---|
|-------------6-5---6-------------6-5---6-------------6-5---6-------------6-5---6-|
|-0-0-0-0-0-0---------0-0-0-0-0-0---------0-0-0-0-0-0---------0-0-0-0-0-0---------|

Interlude Palm-Muted
|---------------------------------|---------------------|
|---------------------------------|---------------------|
|---------------------------------|---------------------|
|---------------------------------|---------------------|
|-2-2-2-1-3-3-3-2-5-5-5-4-4-4-4-2-|-0-0--0-0--0-0--0-0--|
|-2-2-2-1-3-3-3-2-5-5-5-4-4-4-4-2-|-0-0--0-0--0-0--0-0--|

Breakdown Play Riff B Then Continue With This
|-------------------------------------------------------------------------------------------|
|-------------------------------------------------------------------------------------------|
|-------------------------------------------------------------------------------------------|
|-------------------------------------------------------------------------------------------|
|-0-12-10-0-13-13-12-10-0-12-10-0-13-13-12-10-0-12-10-0-13-13-12-10-0-12-10-0-13-13-12-10-0-|
|-0-12-10-0-13-13-12-10-0-12-10-0-13-13-12-10-0-12-10-0-13-13-12-10-0-12-10-0-13-13-12-10-0-|

Bridge
|---------------------------------|----------------------------------------|
|---------------------------------|-----3----------------------------------|
|---------------------------------|-----2------2------1--------------------|
|---------------------------------|------------3------2--------------------|
|-0-0-0-0-0-0-0-0-0-0-0-0-0-0-0-0-|-0-0----0-0----0-0----0-0-0-0-0-0-0-0-0-|
|-0-0-0-0-0-0-0-0-0-0-0-0-0-0-0-0-|-0-0----0-0----0-0----0-0-0-0-0-0-0-0-0-|
  . . . . . . . . . . . . . . . .   . .    . .    . .    . . . . . . . . .

|----------------------------------------|
|----------------------------------------|
|-----1------2---------------------------|
|-----2------3------3--------------------|
|-0-0----0-0----0-0-5--0-0-0-0-0-0-0-0-0-|
|-0-0----0-0----0-0----0-0-0-0-0-0-0-0-0-|
  . .    . .    . .    . . . . . . . . .

Outro
|-------------------------------------------------|
|-------------------------------------------------|
|-------------------------------------------------|
|-------------------------------------------------|
|-------------------------------------------------|
|-0--0--0--0--0--0--0--0--0--0--0--0--0--0--0--0--|
Добавлено: 11.06.2013
Другие материалы по этой песне:
  • Аккорды и текст

Страница создана 11.06.2013
http://primanota.ru/soulfly/blood-fire-war-hate-chords.htm
Привет, Гость.
Предлагаем пройти революционный курс по гитаре.
Подарок от PrimaNota.Ru, забирай!