PrimaNota.ru - самый крупный в мире бесплатный архив песенных текстов, аккордов, табулатур и нот


Soul In Isolation - Is Black Dark Enough - таба, видео

Регистрация Запомнить меня
Войти через:  Facebook Google Twitter Vk Yandex Mail.ru

Soul In Isolation - Is Black Dark Enough - таба, видео

Печатать
Просмотров: 74
Уроки эстрадного вокала в Санкт-Петербурге
Is black dark enough - Tab by Soul in Isolation, www.soul-in-isolation.com


VERSE 1st Part
(Notes in Brackets only at the first time to play)
E------------------------------|
H----(6)--6-5/5----------------|
G---------------5/5-4----4-(5)-|
D---------------------7--------|  10x
A------------------------------|
E------------------------------|


VERSE 2nd  Part

E---------------------------------------------------------5------|
H---6-5/5-6/6-5/5-------5-6-5-5---6/6-5/5----------5-6-5---------|
G-----------------7/7-7--------------------7/7---7-------(14)----|
D----------------------------------------------------------------|
A----------------------------------------------------------------|
E----------------------------------------------------------------|


E----------------------------------12-13-13-12-12-------------------|
H---------12-13-12-12----12-13-15-----------------15-15-13-13-12-12-|
G---14/14-----------------------------------------------------------|
D-------------------------------------------------------------------|
A-------------------------------------------------------------------|
E-------------------------------------------------------------------|

                   CHORUS

E---------------  --12-------------------------------14-15-14/15/14---|
H---12-13-15-13-  -(17)-15/15-17-13/15/13-12—17-17/17-----------------|
G---------------  ----------------------------------------------------|
D---------------  ----------------------------------------------------|  4x
A---------------  ----------------------------------------------------|
E---------------  ----------------------------------------------------|

Go on…

E---12-12/12---------------------------------|
H------------15/15-13/13-13-12---12-13-15-13-|
G--------------------------------------------|
D--------------------------------------------|  2x
A--------------------------------------------|
E--------------------------------------------|


E---------------------------------------|
H---14-12/12----------------------------|
G------------14/14-12-11----11--12-11---|
D---------------------------------------| 2x
A---------------------------------------|
E---------------------------------------|


E----------------------------------12------14-12-12-----------------------|
H---14-12/12-14-—15--15-14---14-15----15------------15-15-14-14-12----12--|
G------------------------------------------------------------------14-----|
D-------------------------------------------------------------------------|
A-------------------------------------------------------------------------|
E-------------------------------------------------------------------------|
CHORUS  2x


E-------------------------------------------------------------|
H---6-5/5-6/6-5/5-----------5-6-5--5---6/6-5/5---------5-6-5--|
G-----------------7/7----7---------------------7/7---7--------|
D-------------------------------------------------------------|
A-------------------------------------------------------------|
E-------------------------------------------------------------|


E----------------------------------------------------------|
H--------------------------      --17—15/15-17-13/15/13-12-|
G--14--12/12-14-10/12/12-9-  2x  --------------------------|  2x
D--------------------------      --------------------------|
A----------------------------------------------------------|
E----------------------------------------------------------|

Go on…  1x

CHORUS  4x

Copyright by Soul in Isolation (1996)  http://www.soul-in-isolation.com
Добавлено: 23.06.2012
Другие материалы по этой песне:
  • Аккорды и текст

Страница создана 23.06.2012
http://primanota.ru/soul-in-isolation/is-black-dark-enough-chords.htm
Привет, Гость.
Предлагаем пройти революционный курс по гитаре.
Подарок от PrimaNota.Ru, забирай!