PrimaNota.ru - самый крупный в мире бесплатный архив песенных текстов, аккордов, табулатур и нот


Soul Coughing - City Of Motors - текст песни, таба, видео

Регистрация Запомнить меня
Войти через:  Facebook Google Twitter Vk Yandex Mail.ru

Soul Coughing - City Of Motors - текст песни, таба, видео

Печатать
Просмотров: 130
Авторы: Soul Coughing

-------------------------------------------------------------------------------
                            City of Motors  - Soul Coughing
-------------------------------------------------------------------------------
Tabbed by: Clydelee
E-mail: mqsand@gmail.com

Tuning:Standard
Key: Db Minor (C# Minor)

With this song I'm feeling eighth notes at around 185 bpm, so 92-93 bpm quarter notes,
could be off but seems very close. The rhythm of the guitar/bass parts seemed a bit weird and
my timing isn't great this is as close as I could get it. Please let me know if I am off.
Lyrics will be placed directly over its respective tablature/measure.

   1 e & a 2 e & a 3 e & a 4 e & a 1 e & a 2 e & a 3 e & a 4 e & a 
e|-----------------------------------------------------------------|
B|-----------------------------------------------------------------|
G|-----------------------------------------------------------------|
D|-------------6---------------------------------------------------|
A|-4-----7-------------7-------------------------------------------|
E|-----------------------------------------------------------------|


   1 e & a 2 e & a 3 e & a 4 e & a 1 e & a 2 e & a 3 e & a 4 e & a 
e|-----------------------------------------------------------------|
B|-----------------------------------------------------------------|
G|-----------------------------------------------------------------|
D|-------------6---------------------------------------------------|
A|-4-----7-------------7-------------------------------------------|
E|-----------------------------------------------------------------|

VERSE:
                                  "Three times dark..."
   1 e & a 2 e & a 3 e & a 4 e & a 1 e & a 2 e & a 3 e & a 4 e & a 
e|-----------------------------------------------------------------|
B|-----------------------------------------------------------------|
G|-----------------------------------------------------------------|
D|-------------6---------------------------------------------------|
A|-4-----7-------------7-------------------------------------------|
E|-----------------------------------------------------------------|
                                   
                                  "Second on Java street..."
   1 e & a 2 e & a 3 e & a 4 e & a 1 e & a 2 e & a 3 e & a 4 e & a
e|-----------------------------------------------------------------|
B|-----------------------------------------------------------------|
G|-----------------------------------------------------------------|
D|-------8---------------------------------------------------------|
A|-4-----------7---------------------------------------------------|
E|-----------------------------------------------------------------|

                                  "The hood blown out..."
   1 e & a 2 e & a 3 e & a 4 e & a 1 e & a 2 e & a 3 e & a 4 e & a
e|-----------------------------------------------------------------|
B|-----------------------------------------------------------------|
G|-----------------------------------------------------------------|
D|-------8---------------------------------------------------------|
A|-4-----------7---------------------------------------------------|
E|-----------------------------------------------------------------|

                                  "Manuela said she saw..."
   1 e & a 2 e & a 3 e & a 4 e & a 1 e & a 2 e & a 3 e & a 4 e & a
e|-----------------------------------------------------------------|
B|-----------------------------------------------------------------|
G|-----------------------------------------------------------------|
D|-8-----------9---------------------------------------------------|
A|-------7---------------------------------------------------------|
E|-----------------------------------------------------------------|

                                 "Manuela said she saw..."
   1 e & a 2 e & a 3 e & a 4 e & a 1 e & a 2 e & a 3 e & a 4 e & a
e|-----------------------------------------------------------------|
B|-----------------------------------------------------------------|
G|-----------------------------------------------------------------|
D|-8-----------9---------------------------------------------------|
A|-------7---------------------------------------------------------|
E|-----------------------------------------------------------------|

                                 "An Empty body..."
   1 e & a 2 e & a 3 e & a 4 e & a 1 e & a 2 e & a 3 e & a 4 e & a 
e|-----------------------------------------------------------------|
B|-----------------------------------------------------------------|
G|-----------------------------------------------------------------|
D|-------------6---------------------------------------------------|
A|-4-----7-------------7-------------------------------------------|
E|-----------------------------------------------------------------|

                                  "Oil from the axle..."
   1 e & a 2 e & a 3 e & a 4 e & a 1 e & a 2 e & a 3 e & a 4 e & a
e|-----------------------------------------------------------------|
B|-----------------------------------------------------------------|
G|-----------------------------------------------------------------|
D|-------8---------------------------------------------------------|
A|-4-----------7---------------------------------------------------|
E|-----------------------------------------------------------------|

                                  "Ran down Java street..."
   1 e & a 2 e & a 3 e & a 4 e & a 1 e & a 2 e & a 3 e & a 4 e & a
e|-----------------------------------------------------------------|
B|-----------------------------------------------------------------|
G|-----------------------------------------------------------------|
D|-------8---------------------------------------------------------|
A|-4-----------7---------------------------------------------------|
E|-----------------------------------------------------------------|

                                  "Manuela saw the moon..."
   1 e & a 2 e & a 3 e & a 4 e & a 1 e & a 2 e & a 3 e & a 4 e & a
e|-----------------------------------------------------------------|
B|-----------------------------------------------------------------|
G|-----------------------------------------------------------------|
D|-8-----------9---------------------------------------------------|
A|-------7---------------------------------------------------------|
E|-----------------------------------------------------------------|

                                  "Manuela saw the moon..."
   1 e & a 2 e & a 3 e & a 4 e & a 1 e & a 2 e & a 3 e & a 4 e & a
e|-----------------------------------------------------------------|
B|-----------------------------------------------------------------|
G|-----------------------------------------------------------------|
D|-8-----------9---------------------------------------------------|
A|-------7---------------------------------------------------------|
E|-----------------------------------------------------------------|

CHORUS: So this is the general strumming pattern i use for the chorus, it is just a template to
give you an idea of where i think the emphasis is being placed because it is very hard to hear
where the emphasis is on the recording so i just use this simple pattern for the chorus.
I am positive that these are the chords he is using, db minor 6 and Gb dominant 7, the movement
of the bass helps you hear it.
Alternate strum pattern and feel free to mix it up.

                                                      "And i hear it
   1 e & a 2 e & a 3 e & a 4 e & a 1 e & a 2 e & a 3 e & a 4 e & a 
e|-----------------------------------------------------------------|
B|-----------------------------------------------------------------|
G|-3-3-3-3-x-3-3-3-x-3-3-3-3-3-3-3-3-3-3-3-x-3-3-3-x-3-3-3-3-3-3-3-|
D|-2-2-2-2-x-2-2-2-x-2-2-2-2-2-2-2-2-2-2-2-x-2-2-2-x-2-2-2-2-2-2-2-|
A|-4-4-4-4-x-4-4-4-x-4-4-4-4-4-4-4---------------------------------|
E|---------------------------------2-2-2-2-x-2-2-2-x-2-2-2-2-2-2-2-|

   Ruuuuumblinnng"                                    "I hear trans-
   1 e & a 2 e & a 3 e & a 4 e & a 1 e & a 2 e & a 3 e & a 4 e & a 
e|-----------------------------------------------------------------|
B|-----------------------------------------------------------------|
G|-3-3-3-3-x-3-3-3-x-3-3-3-3-3-3-3-3-3-3-3-x-3-3-3-x-3-3-3-3-3-3-3-|
D|-2-2-2-2-x-2-2-2-x-2-2-2-2-2-2-2-2-2-2-2-x-2-2-2-x-2-2-2-2-2-2-2-|
A|-4-4-4-4-x-4-4-4-x-4-4-4-4-4-4-4---------------------------------|
E|---------------------------------2-2-2-2-x-2-2-2-x-2-2-2-2-2-2-2-|

  -mission griiiiiind"                                "I bear       
   1 e & a 2 e & a 3 e & a 4 e & a 1 e & a 2 e & a 3 e & a 4 e & a 
e|-----------------------------------------------------------------|
B|-----------------------------------------------------------------|
G|-3-3-3-3-x-3-3-3-x-3-3-3-3-3-3-3-3-3-3-3-x-3-3-3-x-3-3-3-3-3-3-3-|
D|-2-2-2-2-x-2-2-2-x-2-2-2-2-2-2-2-2-2-2-2-x-2-2-2-x-2-2-2-2-2-2-2-|
A|-4-4-4-4-x-4-4-4-x-4-4-4-4-4-4-4---------------------------------|
E|---------------------------------2-2-2-2-x-2-2-2-x-2-2-2-2-2-2-2-|

  Witness"                                           "I have the
  1 e & a 2 e & a 3 e & a 4 e & a 1 e & a 2 e & a 3 e & a 4 e & a 
e|-----------------------------------------------------------------|
B|-----------------------------------------------------------------|
G|-3-3-3-3-x-3-3-3-x-3-3-3-3-3-3-3-3-3-3-3-x-3-3-3-x-3-3-3-3-3-3-3-|
D|-2-2-2-2-x-2-2-2-x-2-2-2-2-2-2-2-2-2-2-2-x-2-2-2-x-2-2-2-2-2-2-2-|
A|-4-4-4-4-x-4-4-4-x-4-4-4-4-4-4-4---------------------------------|
E|---------------------------------2-2-2-2-x-2-2-2-x-2-2-2-2-2-2-2-|

  "Clutch      now"
   1 e & a 2 e & a 3 e & a 4 e & a 1 e & a 2 e & a 3 e & a 4 e & a 
e|-----------------------------------------------------------------|
B|-----------------------------------------------------------------|
G|-3-3-3-3-x-3-3-3-x-3-3-3-3-3-3-3-3-3-3-3-x-3-3-3-x-3-3-3-3-3-----|
D|-2-2-2-2-x-2-2-2-x-2-2-2-2-2-2-2-2-2-2-2-x-2-2-2-x-2-2-2-2-2-----|
A|-4-4-4-4-x-4-4-4-x-4-4-4-4-4-4-4---------------------------------|
E|---------------------------------2-2-2-2-x-2-2-2-x-2-2-2-2-2-2---|

VERSE:
                                 "Three times dark..."
   1 e & a 2 e & a 3 e & a 4 e & a 1 e & a 2 e & a 3 e & a 4 e & a 
e|-----------------------------------------------------------------|
B|-----------------------------------------------------------------|
G|-----------------------------------------------------------------|
D|-------------6---------------------------------------------------|
A|-4-----7-------------7-------------------------------------------|
E|-----------------------------------------------------------------|
                                   
                                  "Man jumps between..."
   1 e & a 2 e & a 3 e & a 4 e & a 1 e & a 2 e & a 3 e & a 4 e & a
e|-----------------------------------------------------------------|
B|-----------------------------------------------------------------|
G|-----------------------------------------------------------------|
D|-------8---------------------------------------------------------|
A|-4-----------7---------------------------------------------------|
E|-----------------------------------------------------------------|

                                  "Man tries the door..."
   1 e & a 2 e & a 3 e & a 4 e & a 1 e & a 2 e & a 3 e & a 4 e & a
e|-----------------------------------------------------------------|
B|-----------------------------------------------------------------|
G|-----------------------------------------------------------------|
D|-------8---------------------------------------------------------|
A|-4-----------7---------------------------------------------------|
E|-----------------------------------------------------------------|

                                  "Man gouge the hinge..."
   1 e & a 2 e & a 3 e & a 4 e & a 1 e & a 2 e & a 3 e & a 4 e & a
e|-----------------------------------------------------------------|
B|-----------------------------------------------------------------|
G|-----------------------------------------------------------------|
D|-8-----------9---------------------------------------------------|
A|-------7---------------------------------------------------------|
E|-----------------------------------------------------------------|

                                 "Man gouge the hinge..."
   1 e & a 2 e & a 3 e & a 4 e & a 1 e & a 2 e & a 3 e & a 4 e & a
e|-----------------------------------------------------------------|
B|-----------------------------------------------------------------|
G|-----------------------------------------------------------------|
D|-8-----------9---------------------------------------------------|
A|-------7---------------------------------------------------------|
E|-----------------------------------------------------------------|

                                 "Dull bright morning..."
   1 e & a 2 e & a 3 e & a 4 e & a 1 e & a 2 e & a 3 e & a 4 e & a 
e|-----------------------------------------------------------------|
B|-----------------------------------------------------------------|
G|-----------------------------------------------------------------|
D|-------------6---------------------------------------------------|
A|-4-----7-------------7-------------------------------------------|
E|-----------------------------------------------------------------|

                                  "detectives with flashlights..."
   1 e & a 2 e & a 3 e & a 4 e & a 1 e & a 2 e & a 3 e & a 4 e & a
e|-----------------------------------------------------------------|
B|-----------------------------------------------------------------|
G|-----------------------------------------------------------------|
D|-------8---------------------------------------------------------|
A|-4-----------7---------------------------------------------------|
E|-----------------------------------------------------------------|

                                  "Manuela tells detective..."
   1 e & a 2 e & a 3 e & a 4 e & a 1 e & a 2 e & a 3 e & a 4 e & a
e|-----------------------------------------------------------------|
B|-----------------------------------------------------------------|
G|-----------------------------------------------------------------|
D|-------8---------------------------------------------------------|
A|-4-----------7---------------------------------------------------|
E|-----------------------------------------------------------------|

                                  "Stuck in the hinge..."
   1 e & a 2 e & a 3 e & a 4 e & a 1 e & a 2 e & a 3 e & a 4 e & a
e|-----------------------------------------------------------------|
B|-----------------------------------------------------------------|
G|-----------------------------------------------------------------|
D|-8-----------9---------------------------------------------------|
A|-------7---------------------------------------------------------|
E|-----------------------------------------------------------------|

                                  "Stuck in the hinge..."
   1 e & a 2 e & a 3 e & a 4 e & a 1 e & a 2 e & a 3 e & a 4 e & a
e|-----------------------------------------------------------------|
B|-----------------------------------------------------------------|
G|-----------------------------------------------------------------|
D|-----------------------------------------------------------------|
A|-4-----7-----6---------------------------------------------------|
E|-----------------------------------------------------------------|

CHORUS:
                                                      "And i hear it
   1 e & a 2 e & a 3 e & a 4 e & a 1 e & a 2 e & a 3 e & a 4 e & a 
e|-----------------------------------------------------------------|
B|-----------------------------------------------------------------|
G|-3-3-3-3-x-3-3-3-x-3-3-3-3-3-3-3-3-3-3-3-x-3-3-3-x-3-3-3-3-3-3-3-|
D|-2-2-2-2-x-2-2-2-x-2-2-2-2-2-2-2-2-2-2-2-x-2-2-2-x-2-2-2-2-2-2-2-|
A|-4-4-4-4-x-4-4-4-x-4-4-4-4-4-4-4---------------------------------|
E|---------------------------------2-2-2-2-x-2-2-2-x-2-2-2-2-2-2-2-|

   Ruuuuumblinnng"                                    "I hear trans-
   1 e & a 2 e & a 3 e & a 4 e & a 1 e & a 2 e & a 3 e & a 4 e & a 
e|-----------------------------------------------------------------|
B|-----------------------------------------------------------------|
G|-3-3-3-3-x-3-3-3-x-3-3-3-3-3-3-3-3-3-3-3-x-3-3-3-x-3-3-3-3-3-3-3-|
D|-2-2-2-2-x-2-2-2-x-2-2-2-2-2-2-2-2-2-2-2-x-2-2-2-x-2-2-2-2-2-2-2-|
A|-4-4-4-4-x-4-4-4-x-4-4-4-4-4-4-4---------------------------------|
E|---------------------------------2-2-2-2-x-2-2-2-x-2-2-2-2-2-2-2-|

  -mission griiiiiind"                                "I bear       
   1 e & a 2 e & a 3 e & a 4 e & a 1 e & a 2 e & a 3 e & a 4 e & a 
e|-----------------------------------------------------------------|
B|-----------------------------------------------------------------|
G|-3-3-3-3-x-3-3-3-x-3-3-3-3-3-3-3-3-3-3-3-x-3-3-3-x-3-3-3-3-3-3-3-|
D|-2-2-2-2-x-2-2-2-x-2-2-2-2-2-2-2-2-2-2-2-x-2-2-2-x-2-2-2-2-2-2-2-|
A|-4-4-4-4-x-4-4-4-x-4-4-4-4-4-4-4---------------------------------|
E|---------------------------------2-2-2-2-x-2-2-2-x-2-2-2-2-2-2-2-|

  Witness"                                           "I have the
  1 e & a 2 e & a 3 e & a 4 e & a 1 e & a 2 e & a 3 e & a 4 e & a 
e|-----------------------------------------------------------------|
B|-----------------------------------------------------------------|
G|-3-3-3-3-x-3-3-3-x-3-3-3-3-3-3-3-3-3-3-3-x-3-3-3-x-3-3-3-3-3-3-3-|
D|-2-2-2-2-x-2-2-2-x-2-2-2-2-2-2-2-2-2-2-2-x-2-2-2-x-2-2-2-2-2-2-2-|
A|-4-4-4-4-x-4-4-4-x-4-4-4-4-4-4-4---------------------------------|
E|---------------------------------2-2-2-2-x-2-2-2-x-2-2-2-2-2-2-2-|

  "Clutch      now"
   1 e & a 2 e & a 3 e & a 4 e & a 1 e & a 2 e & a 3 e & a 4 e & a 
e|-----------------------------------------------------------------|
B|-----------------------------------------------------------------|
G|-3-3-3-3-x-3-3-3-x-3-3-3-3-3-3-3-3-3-3-3-x-3-3-3-x-3-3-3-3-3-----|
D|-2-2-2-2-x-2-2-2-x-2-2-2-2-2-2-2-2-2-2-2-x-2-2-2-x-2-2-2-2-2-----|
A|-4-4-4-4-x-4-4-4-x-4-4-4-4-4-4-4---------------------------------|
E|---------------------------------2-2-2-2-x-2-2-2-x-2-2-2-2-2-2---|

VERSE: 

                                 "Three times dark..."
   1 e & a 2 e & a 3 e & a 4 e & a 1 e & a 2 e & a 3 e & a 4 e & a 
e|-----------------------------------------------------------------|
B|-----------------------------------------------------------------|
G|-----------------------------------------------------------------|
D|-------------6---------------------------------------------------|
A|-4-----7-------------7-------------------------------------------|
E|-----------------------------------------------------------------|
                                   
                                  "From the Motor City..."
   1 e & a 2 e & a 3 e & a 4 e & a 1 e & a 2 e & a 3 e & a 4 e & a
e|-----------------------------------------------------------------|
B|-----------------------------------------------------------------|
G|-----------------------------------------------------------------|
D|-------8---------------------------------------------------------|
A|-4-----------7---------------------------------------------------|
E|-----------------------------------------------------------------|

                                  "They traced his travel..."
   1 e & a 2 e & a 3 e & a 4 e & a 1 e & a 2 e & a 3 e & a 4 e & a
e|-----------------------------------------------------------------|
B|-----------------------------------------------------------------|
G|-----------------------------------------------------------------|
D|-------8---------------------------------------------------------|
A|-4-----------7---------------------------------------------------|
E|-----------------------------------------------------------------|

                                  "No sleep smokes..."
   1 e & a 2 e & a 3 e & a 4 e & a 1 e & a 2 e & a 3 e & a 4 e & a
e|-----------------------------------------------------------------|
B|-----------------------------------------------------------------|
G|-----------------------------------------------------------------|
D|-8-----------9---------------------------------------------------|
A|-------7---------------------------------------------------------|
E|-----------------------------------------------------------------|

                                  "No sleep smokes..."
   1 e & a 2 e & a 3 e & a 4 e & a 1 e & a 2 e & a 3 e & a 4 e & a
e|-----------------------------------------------------------------|
B|-----------------------------------------------------------------|
G|-----------------------------------------------------------------|
D|-8-----------9---------------------------------------------------|
A|-------7---------------------------------------------------------|
E|-----------------------------------------------------------------|

                                  "Flips an ash..."
   1 e & a 2 e & a 3 e & a 4 e & a 1 e & a 2 e & a 3 e & a 4 e & a 
e|-----------------------------------------------------------------|
B|-----------------------------------------------------------------|
G|-----------------------------------------------------------------|
D|-------------6---------------------------------------------------|
A|-4-----7-------------7-------------------------------------------|
E|-----------------------------------------------------------------|

                                  "Ash hits the oil..."
   1 e & a 2 e & a 3 e & a 4 e & a 1 e & a 2 e & a 3 e & a 4 e & a
e|-----------------------------------------------------------------|
B|-----------------------------------------------------------------|
G|-----------------------------------------------------------------|
D|-------8---------------------------------------------------------|
A|-4-----------7---------------------------------------------------|
E|-----------------------------------------------------------------|

                                  "Travels to the pump..."
   1 e & a 2 e & a 3 e & a 4 e & a 1 e & a 2 e & a 3 e & a 4 e & a
e|-----------------------------------------------------------------|
B|-----------------------------------------------------------------|
G|-----------------------------------------------------------------|
D|-------8---------------------------------------------------------|
A|-4-----------7---------------------------------------------------|
E|-----------------------------------------------------------------|

                                  "Witness said he..."
   1 e & a 2 e & a 3 e & a 4 e & a 1 e & a 2 e & a 3 e & a 4 e & a
e|-----------------------------------------------------------------|
B|-----------------------------------------------------------------|
G|-----------------------------------------------------------------|
D|-8-----------9---------------------------------------------------|
A|-------7---------------------------------------------------------|
E|-----------------------------------------------------------------|

                                  "Witness said he..."
   1 e & a 2 e & a 3 e & a 4 e & a 1 e & a 2 e & a 3 e & a 4 e & a
e|-----------------------------------------------------------------|
B|-----------------------------------------------------------------|
G|-----------------------------------------------------------------|
D|-8-----------9---------------------------------------------------|
A|------7----------------------------------------------------------|
E|-----------------------------------------------------------------|

CHORUS:

                                                      "And i hear it
   1 e & a 2 e & a 3 e & a 4 e & a 1 e & a 2 e & a 3 e & a 4 e & a 
e|-----------------------------------------------------------------|
B|-----------------------------------------------------------------|
G|-3-3-3-3-x-3-3-3-x-3-3-3-3-3-3-3-3-3-3-3-x-3-3-3-x-3-3-3-3-3-3-3-|
D|-2-2-2-2-x-2-2-2-x-2-2-2-2-2-2-2-2-2-2-2-x-2-2-2-x-2-2-2-2-2-2-2-|
A|-4-4-4-4-x-4-4-4-x-4-4-4-4-4-4-4---------------------------------|
E|---------------------------------2-2-2-2-x-2-2-2-x-2-2-2-2-2-2-2-|

   Ruuuuumblinnng"                                    "I hear trans-
   1 e & a 2 e & a 3 e & a 4 e & a 1 e & a 2 e & a 3 e & a 4 e & a 
e|-----------------------------------------------------------------|
B|-----------------------------------------------------------------|
G|-3-3-3-3-x-3-3-3-x-3-3-3-3-3-3-3-3-3-3-3-x-3-3-3-x-3-3-3-3-3-3-3-|
D|-2-2-2-2-x-2-2-2-x-2-2-2-2-2-2-2-2-2-2-2-x-2-2-2-x-2-2-2-2-2-2-2-|
A|-4-4-4-4-x-4-4-4-x-4-4-4-4-4-4-4---------------------------------|
E|---------------------------------2-2-2-2-x-2-2-2-x-2-2-2-2-2-2-2-|

  -mission griiiiiind"                                "I bear       
   1 e & a 2 e & a 3 e & a 4 e & a 1 e & a 2 e & a 3 e & a 4 e & a 
e|-----------------------------------------------------------------|
B|-----------------------------------------------------------------|
G|-3-3-3-3-x-3-3-3-x-3-3-3-3-3-3-3-3-3-3-3-x-3-3-3-x-3-3-3-3-3-3-3-|
D|-2-2-2-2-x-2-2-2-x-2-2-2-2-2-2-2-2-2-2-2-x-2-2-2-x-2-2-2-2-2-2-2-|
A|-4-4-4-4-x-4-4-4-x-4-4-4-4-4-4-4---------------------------------|
E|---------------------------------2-2-2-2-x-2-2-2-x-2-2-2-2-2-2-2-|

  Witness"                                           "I have the
  1 e & a 2 e & a 3 e & a 4 e & a 1 e & a 2 e & a 3 e & a 4 e & a 
e|-----------------------------------------------------------------|
B|-----------------------------------------------------------------|
G|-3-3-3-3-x-3-3-3-x-3-3-3-3-3-3-3-3-3-3-3-x-3-3-3-x-3-3-3-3-3-3-3-|
D|-2-2-2-2-x-2-2-2-x-2-2-2-2-2-2-2-2-2-2-2-x-2-2-2-x-2-2-2-2-2-2-2-|
A|-4-4-4-4-x-4-4-4-x-4-4-4-4-4-4-4---------------------------------|
E|---------------------------------2-2-2-2-x-2-2-2-x-2-2-2-2-2-2-2-|

  "Clutch      now"                                   "And i hear it
   1 e & a 2 e & a 3 e & a 4 e & a 1 e & a 2 e & a 3 e & a 4 e & a 
e|-----------------------------------------------------------------|
B|-----------------------------------------------------------------|
G|-3-3-3-3-x-3-3-3-x-3-3-3-3-3-3-3-3-3-3-3-x-3-3-3-x-3-3-3-3-3-3-3-|
D|-2-2-2-2-x-2-2-2-x-2-2-2-2-2-2-2-2-2-2-2-x-2-2-2-x-2-2-2-2-2-2-2-|
A|-4-4-4-4-x-4-4-4-x-4-4-4-4-4-4-4---------------------------------|
E|---------------------------------2-2-2-2-x-2-2-2-x-2-2-2-2-2-2-2-|

   Ruuuuumblinnng"                                    "I hear trans-
   1 e & a 2 e & a 3 e & a 4 e & a 1 e & a 2 e & a 3 e & a 4 e & a 
e|-----------------------------------------------------------------|
B|-----------------------------------------------------------------|
G|-3-3-3-3-x-3-3-3-x-3-3-3-3-3-3-3-3-3-3-3-x-3-3-3-x-3-3-3-3-3-3-3-|
D|-2-2-2-2-x-2-2-2-x-2-2-2-2-2-2-2-2-2-2-2-x-2-2-2-x-2-2-2-2-2-2-2-|
A|-4-4-4-4-x-4-4-4-x-4-4-4-4-4-4-4---------------------------------|
E|---------------------------------2-2-2-2-x-2-2-2-x-2-2-2-2-2-2-2-|

  -mission griiiiiind"                                "I bear       
   1 e & a 2 e & a 3 e & a 4 e & a 1 e & a 2 e & a 3 e & a 4 e & a 
e|-----------------------------------------------------------------|
B|-----------------------------------------------------------------|
G|-3-3-3-3-x-3-3-3-x-3-3-3-3-3-3-3-3-3-3-3-x-3-3-3-x-3-3-3-3-3-3-3-|
D|-2-2-2-2-x-2-2-2-x-2-2-2-2-2-2-2-2-2-2-2-x-2-2-2-x-2-2-2-2-2-2-2-|
A|-4-4-4-4-x-4-4-4-x-4-4-4-4-4-4-4---------------------------------|
E|---------------------------------2-2-2-2-x-2-2-2-x-2-2-2-2-2-2-2-|

  Witness"                                           "I have the
  1 e & a 2 e & a 3 e & a 4 e & a 1 e & a 2 e & a 3 e & a 4 e & a 
e|-----------------------------------------------------------------|
B|-----------------------------------------------------------------|
G|-3-3-3-3-x-3-3-3-x-3-3-3-3-3-3-3-3-3-3-3-x-3-3-3-x-3-3-3-3-3-3-3-|
D|-2-2-2-2-x-2-2-2-x-2-2-2-2-2-2-2-2-2-2-2-x-2-2-2-x-2-2-2-2-2-2-2-|
A|-4-4-4-4-x-4-4-4-x-4-4-4-4-4-4-4---------------------------------|
E|---------------------------------2-2-2-2-x-2-2-2-x-2-2-2-2-2-2-2-|

  "Clutch      now"       "Now         Now now now nooooww"       
   1 e & a 2 e & a 3 e & a 4 e & a 1 e & a 2 e & a 3 e & a 4 e & a 
e|-----------------------------------------------------------------|
B|-----------------------------------------------------------------|
G|-3-3-3-3-x-3-3-3-x-3-3-3-3-3-3-3-3-3-3-3-x-3-3-3-x-3-3-3-3-3-3-3-|
D|-2-2-2-2-x-2-2-2-x-2-2-2-2-2-2-2-2-2-2-2-x-2-2-2-x-2-2-2-2-2-2-2-|
A|-4-4-4-4-x-4-4-4-x-4-4-4-4-4-4-4---------------------------------|
E|---------------------------------2-2-2-2-x-2-2-2-x-2-2-2-2-2-2-2-|

  1 e & a 2 e & a 3 e & a 4 e & a 1 e & a 2 e & a 3 e & a 4 e & a 
e|-----------------------------------------------------------------|
B|-----------------------------------------------------------------|
G|-----------------------------------------------------------------|
D|-------------6---------------------------------------------------|
A|-4-----7-------------7-------------------------------------------|
E|-----------------------------------------------------------------|

Well that should do it, it is pretty repetitive with a few changes hear and there,
RUBRY VROOOOOOOOOOOOOOM!!!
Добавлено: 10.06.2015
Другие материалы по этой песне:
  • Аккорды и текст

Страница создана 18.07.2012
http://primanota.ru/soul-coughing/city-of-motors-chords.htm
Привет, Гость.
Предлагаем пройти революционный курс по гитаре.
Подарок от PrimaNota.Ru, забирай!