PrimaNota.ru - самый крупный в мире бесплатный архив песенных текстов, аккордов, табулатур и нот


Sortokausi - Kaunis Harmonia - таба, видео

Регистрация Запомнить меня
Войти через:  Facebook Google Twitter Vk Yandex Mail.ru

Sortokausi - Kaunis Harmonia - таба, видео

Печатать
Просмотров: 85
Sortokausi - Kaunis Harmonia
www.myspace.com/sortokausi


---------------------------------------------------------------------------

D||--------------------------------------|
A||--------------------------------------|
F||--------------------------------------|
C||--------------------------------------|
G||--8--------8--------7--------7-----7--|
C||-----7--0-----7--0-----6--0-----6-----|


                                                              PM PM PM  
  |--3--|  |--3--|  |--3--|  |--3--|     3      3      3      |--3--|   
  E  E  E  E  E  E  E  E  E  E  E  E     Q.     Q.     Q.     E  E  E   
--------------------------------------|--------------------------------|
--------------------------------------|--------------------------------|
--------------------------------------|--------------------------------|
--------------------------------------|--------------------------------|
--8--------8--------7--------7-----7--|--3------1------4---------------|
-----7--0-----7--0-----6--0-----6-----|--3------1------4------0--0--0--|


  |-3| |3|  |-3| |3|  |-3| |3|  |--3--|   
  E  S S E  E  S S E  E  S S E  E  E  E   
-----------------------------------------|
-----------------------------------------|
-----------------------------------------|
-----------------------------------------|
--8---------8---------7---------7-----7--|
-----7-7-7-----7-7-7-----6-6-6-----6-----|


                                PM PM PM  
  |-3| |3|  |-3| |3|  |-3| |3|  |--3--|   
  E  S S E  E  S S E  E  S S E  E  E  E   
-----------------------------------------|
-----------------------------------------|
-----------------------------------------|
-----------------------------------------|
--8---------8---------7---------3--1--0--|
-----7-7-7-----7-7-7-----6-6-6--3--1--0--|


  |-3| |3|  |-3| |3|  |-3| |3|  |--3--|   
  E  S S E  E  S S E  E  S S E  E  E  E   
-----------------------------------------|
-----------------------------------------|
-----------------------------------------|
-----------------------------------------|
--8---------8---------7---------7-----7--|
-----7-7-7-----7-7-7-----6-6-6-----6-----|


                                PM PM PM  
  |-3| |3|  |-3| |3|  |-3| |3|  |--3--|   
  E  S S E  E  S S E  E  S S E  E  E  E   
-----------------------------------------|
-----------------------------------------|
-----------------------------------------|
-----------------------------------------|
--8---------8---------7---------3--1--0--|
-----7-7-7-----7-7-7-----6-6-6--3--1--0--|


  |-3| |3|  |-3| |3|  |-3| |3|  |--3--|   
  E  S S E  E  S S E  E  S S E  E  E  E   
-----------------------------------------|
-----------------------------------------|
-----------------------------------------|
-----------------------------------------|
--5---------5---------4---------4-----4--|
-----7-7-7-----7-7-7-----6-6-6-----6-----|


  |-3| |3|  |-3| |3|  |-3| |3|   |--3--|   
  E  S S E  E  S S E  E  S S E   E  E  E   
------------------------------------------|
------------------------------------------|
------------------------------------------|
------------------------------------------|
--5---------5---------8---------10--8--7--|
-----7-7-7-----7-7-7-----7-7-7------------|


  |-3| |3|  |-3| |3|  |-3| |3|  |--3--|   
  E  S S E  E  S S E  E  S S E  E  E  E   
-----------------------------------------|
-----------------------------------------|
-----------------------------------------|
-----------------------------------------|
--5---------5---------4---------4-----4--|
-----7-7-7-----7-7-7-----6-6-6-----6-----|


  |-3-| |-3-| |-3-| |-3-| |-3-| |-3-|  |--3--|  |--3--|  
  S S S S S S S S S S S S S S S S S S  S  S  S  S  S  S  
--------------------------------------------------------|
--------------------------------------------------------|
--------------------------------------------------------|
--------------------------------------------------------|
--5-5-5-5-5-5-7-7-7-7-7-7-8-8-8-8-8-8-10-10-10-10-12-12-|
--------------------------------------------------------|


    |-3-| |-3-| |--3--|  |-3-| |-3-| |--3--|   
    S S S S S S E  E  E  S S S S S S E  E  E   
|---------------------------------------------|
|---------------------------------------------|
|*--------------7--------------------7--------|
|*--------------------8--------------------8--|
|---------------------------------------------|
|---0-0-0---0------0-----0-0-0---0------0-----|


  |-3-| |-3-| |--3--|  |-3-| |-3-| |--3--|   
  S S S S S S E  E  E  S S S S S S E  E  E   
--------------------------------------------|
--------------------------------------------|
--------------5--------------------5--------|
--------------------8--------------------7--|
--------------------------------------------|
--5-5-5---5------5-----5-5-5---5------5-----|


  |-3-| |-3-| |--3--|  |-3-| |-3-| |--3--|   
  S S S S S S E  E  E  S S S S S S E  E  E   
--------------------------------------------|
--------------------------------------------|
--------------7--------------------7--------|
--------------------8--------------------8--|
--------------------------------------------|
--0-0-0---0------0-----0-0-0---0------0-----|


  |-3-| |-3-|  |--3--|  |-3-| |-3-|  |--3--|     
  S S S S S S  E  E  E  S S S S S S  E  E  E     
-----------------------------------------------||
-----------------------------------------------||
--------------10--------------------10--------*||
---------------------8---------------------7--*||
-----------------------------------------------||   X 4
--8-8-8---8-------8-----8-8-8---8-------8------||




    |---3--|  |--3--|  |---3--|  |--3--|   
    S S E  E  E  E  E  S S E  E  E  E  E   
|-----------------------------------------|
|-----------------------------------------|
|*----------------------------------------|
|*----------------------------------------|
|----------8--5---------------8--5--------|
|---0-0-0--------8--5--0-0-0--------8--5--|


  |---3--|  |--3--|  |---3--|  |--3--|   
  S S E  E  E  E  E  S S E  E  E  E  E   
----------------------------------------|
----------------------------------------|
----------------------------------------|
---------8--7---------------8--7--------|
---------------8--5---------------8--5--|
--5-5-5--------------5-5-5--------------|


  |-3| |3|  |-3| |3|  |-3| |3|  |-3| |3|   
  E  S S E  E  S S E  E  S S E  E  S S E   
------------------------------------------|
------------------------------------------|
------------------------------------------|
------------------------------------------|
--4---------4---------4---------5---------|
-----6-6-6-----6-6-6-----6-6-6-----6-6-6--|


  |-3| |3|  |-3| |3|  |-3| |3|  |-3| |3|                                        
  E  S S E  E  S S E  E  S S E  E  S S E       S S S S S S S S S S S S S S S S  
-------------------------------------------||----------------------------------|
-------------------------------------------||----------------------------------|
------------------------------------------*||----------------------------------|
------------------------------------------*||----------------------------------|
--4---------4---------4---------5----------||--0-0-0---0-0-0-0-0---0---0---0-0-|
-----6-6-6-----6-6-6-----6-6-6-----6-6-6---||--0-0-0---0-0-0-0-0---0---0---0-0-|


  S S S S S S S S S S S S S S S S    S S S S S S S S S S S S S S S S  
----------------------------------|----------------------------------|
----------------------------------|----------------------------------|
----------------------------------|----------------------------------|
----------------------------------|----------------------------------|
--0-0-0---0---0---0-0-0---0---0---|--0-0-0---0-0-0-0-0---0---0---0-0-|
--0-0-0---0---0---0-0-0---0---0---|--0-0-0---0-0-0-0-0---0---0---0-0-|


                          PM                                         
  S S S S S S S S S S S S E  S S    S S S S S S S S S S S S S S S S  
---------------------------------|----------------------------------|
---------------------------------|----------------------------------|
---------------------------------|----------------------------------|
---------------------------------|----------------------------------|
--0-0-0---0---0---0-0-0---0------|--0-0-0---0-0-0-0-0---0---0---0-0-|
--0-0-0---0---0---0-0-0---0------|--0-0-0---0-0-0-0-0---0---0---0-0-|


  S S S S S S S S S S S S S S S S    S S S S S S S S S S S S S S S S  
----------------------------------|----------------------------------|
----------------------------------|----------------------------------|
----------------------------------|----------------------------------|
----------------------------------|----------------------------------|
--0-0-0---0---0---0-0-0---0---0---|--0-0-0---0-0-0-0-0---0---0---0-0-|
--0-0-0---0---0---0-0-0---0---0---|--0-0-0---0-0-0-0-0---0---0---0-0-|


  S S S S S S S S S S S S S S S S    S S S S S S S S S S S S S S S S  
----------------------------------|----------------------------------|
----------------------------------|----------------------------------|
----------------------------------|----------------------------------|
----------------------------------|----------------------------------|
--0-0-0---0---0---0-0-0---0-------|--0-0-0---0-0-0-0-0---0---0---0-0-|
--0-0-0---0---0---0-0-0---0-------|--1-1-1---1-1-1-1-1---1---1---1-1-|


  S S S S S S S S S S S S S S S S    S S S S S S S S S S S S S S S S  
----------------------------------|----------------------------------|
----------------------------------|----------------------------------|
----------------------------------|----------------------------------|
----------------------------------|----------------------------------|
--0-0-0---0---0---0-0-0---0---0---|--0-0-0---0-0-0-0-0---0---0---0-0-|
--1-1-1---1---1---1-1-1---1---1---|--1-1-1---1-1-1-1-1---1---1---1-1-|


  S S S S S S S S S S S S S S S S      
----------------------------------|
----------------------------------|
----------------------------------|
----------------------------------|
--0-0-0---0---0---0---------------|
--1-1-1---1---1---0---------------|

kitara 1

  S S S S S S S S S S S S S S S S      
|--10--10--10--10--10--10--10--10--|
|----------------------------------|
|---7---7---7---7---7---7---7---7--|
|----------------------------------|
|----------------------------------|
|----------------------------------|

   E   E   E   E   E   E   E   E     E  E  E  E  E  E  E  E   
--10--10--10--10--10--10--10--10--|--8--8--8--8--8--8--8--8--|
----------------------------------|--------------------------|
---7---7---7---7---7---7---7---7--|--7--7--7--7--7--7--7--7--|
----------------------------------|--------------------------|
----------------------------------|--------------------------|
----------------------------------|--------------------------|


   E   E   E   E   E   E   E   E      E   E   E   E   E   E   E   E   
----------------------------------|--10--10--10--10--10--10--10--10--|
--10--10--10--10--10--10--10--10--|----------------------------------|
---7---7---7---7---7---7---7---7--|---7---7---7---7---7---7---7---7--|
----------------------------------|----------------------------------|
----------------------------------|----------------------------------|
----------------------------------|----------------------------------|


   E   E   E   E   E   E   E   E     E  E  E  E  E  E  E  E   
--10--10--10--10--10--10--10--10--|--8--8--8--8--8--8--8--8--|
----------------------------------|--------------------------|
---7---7---7---7---7---7---7---7--|--7--7--7--7--7--7--7--7--|
----------------------------------|--------------------------|
----------------------------------|--------------------------|
----------------------------------|--------------------------|


  PM PM    PM PM PM    PM    PM                           
  E  E  E  E  E  E  E  E     E     
--------------------------|-----|
--------------------------|-----|
--------------------------|-----|
--------------------------|-----|
--0--0-----0--0--0-----0--|--0--|
--0--0-----0--0--0-----0--|--0--|

kitara 2

  S S S S S S S S S S S S S S S S                 
|-------------------|-------------------|
|-------------------|-------------------|
|-------------------|-------------------|
|--0----------------|--L----------------|
|--0----------------|--L----------------|
|--0----------------|--L----------------|


  W                   W                   W                   W                 
-------------------|-------------------|-------------------|-------------------|
-------------------|-------------------|-------------------|-------------------|
-------------------|-------------------|-------------------|-------------------|
--8----------------|--L----------------|--0----------------|--L----------------|
--8----------------|--L----------------|--0----------------|--L----------------|
--8----------------|--L----------------|--0----------------|--L----------------|


                      PM PM    PM PM PM    PM                           
  W                   E  E  E  E  E  E  E  E      Q.      Q.      Q     
-------------------|--------------------------|----------10------12----|
-------------------|--------------------------|--10-------L-------L----|
-------------------|--------------------------|------------------------|
--8----------------|--------------------------|------------------------|
--8----------------|--0--0-----0--0--0-----0--|------------------------|
--8----------------|--0--0-----0--0--0-----0--|------------------------|

Chorus

kitara 1


  PM PM    PM PM PM    PM                            
  E  E  E  E  E  E  E  E  
|--13----13--13--13--13--|
|------------------------|
|------------------------|
|---0-----0---0---0---0--|
|---0-----0---0---0---0--|
|---0-----0---0---0---0--|

   Q     E   E   E   E      Q     E   E   E   E      Q     E   E   E   E 

--12----12--12--12--12--|------------------------|--10----10--10--10--10--|
------------------------|--10----10--10--10--10--|------------------------|
------------------------|------------------------|------------------------|
--10----10--10--10--10--|---7-----7---7---7---7--|---8-----8---8---8---8--|
--10----10--10--10--10--|---7-----7---7---7---7--|---8-----8---8---8---8--|
--10----10--10--10--10--|---7-----7---7---7---7--|---8-----8---8---8---8--|

kitara 2

   Q     E   E   E   E      Q     E   E   E   E      Q     E   E   E   E   
--13----13--13--13--13--|--12----12--12--12--12--|------------------------|
------------------------|------------------------|--10----10--10--10--10--|
------------------------|------------------------|------------------------|
------------------------|------------------------|------------------------|
------------------------|------------------------|------------------------|
------------------------|------------------------|------------------------|


   Q     E   E   E   E      Q     E   E   E   E      Q     E   E   E   E   
--10----10--12--10--12--|--13----13--13--13--13--|--15----15--15--15--15--|
------------------------|------------------------|------------------------|
------------------------|------------------------|------------------------|
------------------------|------------------------|------------------------|
------------------------|------------------------|------------------------|
------------------------|------------------------|------------------------|


   Q     E   E   E   E      S  S  E   S  S  E   Q         Q     E   E   E   E   
--17----17--17--17--17--|--15-17-15--13-15-13--12~----|--13----13--13--13--13--|
------------------------|-----------------------------|------------------------|
------------------------|-----------------------------|------------------------|
------------------------|-----------------------------|------------------------|
------------------------|-----------------------------|------------------------|
------------------------|-----------------------------|------------------------|


   Q     E   E   E   E      Q     E   E   E   E      Q     E   E   E   E   
--12----12--12--12--12--|------------------------|--10----10--12--10--12--|
------------------------|--10----10--10--10--10--|------------------------|
------------------------|------------------------|------------------------|
------------------------|------------------------|------------------------|
------------------------|------------------------|------------------------|
------------------------|------------------------|------------------------|


   Q     E   E   E   E      Q     E   E   E   E      Q     E   E   E   E   
--13----13--13--13--13--|--15----15--15--15--15--|--17----17--17--17--17--|
------------------------|------------------------|------------------------|
------------------------|------------------------|------------------------|
------------------------|------------------------|------------------------|
------------------------|------------------------|------------------------|
------------------------|------------------------|------------------------|


   Q     E   E   E   E      Q     E   E   E   E      Q     E   E   E   E   
--17----17--17--17--17--|--15----15--15--15--15--|--15----15--15--15--15--|
------------------------|------------------------|------------------------|
------------------------|------------------------|------------------------|
------------------------|------------------------|------------------------|
------------------------|------------------------|------------------------|
------------------------|------------------------|------------------------|


   Q     E   E   E   E      Q     E   E   E   E        
--13----13--13--13--13--|--13----13--13--13--13--|
------------------------|------------------------|
------------------------|------------------------|
------------------------|------------------------|
------------------------|------------------------|
------------------------|------------------------|

Soolo:
     H         Q     
|------------------|
|--10~--------L----|
|------------------|
|------------------|
|------------------|
|------------------|


   H          E   E      H         Q           E   E   E   E   E   E   
---------------------|---------------------|----------13--------------|
--13~--------15--13--|--15b--------Lpbr----|--15--13------15--13--15--|
---------------------|---------------------|--------------------------|
---------------------|---------------------|--------------------------|
---------------------|---------------------|--------------------------|
---------------------|---------------------|--------------------------|


   Q     E   E   E   E      E    E   E   E   E   E   
------------------------|---------------------------|
--15----15--15--15--15--|--15s--17--17--17--17--17--|
------------------------|---------------------------|
------------------------|---------------------------|
------------------------|---------------------------|
------------------------|---------------------------|


   E    E   E   E   E   E      S   S   E   E   E   Q      
---------------------------|-----------------------------|
--17s--18--18--18--18--18--|--17s-18s-17--15--17--15~----|
---------------------------|-----------------------------|
---------------------------|-----------------------------|
---------------------------|-----------------------------|
---------------------------|-----------------------------|


   E   E   E   E   E   E      E   E   E   E   E   E   
------------------15------|------------------15------|
--18--15--17--15------15--|--18--15--17--15------15--|
--------------------------|--------------------------|
--------------------------|--------------------------|
--------------------------|--------------------------|
--------------------------|--------------------------|


   S   S   E   E   E   Q        H        Q       E  E  E  E  E  E   
-----------------------------|----------------|--------------------|
--17s-18s-17--15--17--15~----|--L--------L----|--------------------|
-----------------------------|----------------|--------------5--7--|
-----------------------------|----------------|--------5--7--------|
-----------------------------|----------------|--5--8--------------|
-----------------------------|----------------|--------------------|


  Q    Q    Q       S S E  E  E  E  E     S S E  E  E  E  E   
-----------------|---------------------|---------------------|
--8----6----5----|--5-6-5-----------5--|--5-6-5-----------5--|
-----------------|---------7--5--7-----|---------7--5--7-----|
-----------------|---------------------|---------------------|
-----------------|---------------------|---------------------|
-----------------|---------------------|---------------------|


  S S E  E  E  E  E     S S E  E  E  E  E     S S E  E  E  E  E   
---------------------|---------------------|---------------------|
--5-6-5-----------5--|--5-6-5-----------5--|--5-6-5-----------5--|
---------7--5--7-----|---------7--5--7-----|---------7--5--7-----|
---------------------|---------------------|---------------------|
---------------------|---------------------|---------------------|
---------------------|---------------------|---------------------|


  S S E  E  E  E  E               
---------------------|
--5-6-5-----------5--|
---------7--5--7-----|
---------------------|
---------------------|
---------------------|

  H        Q        H        Q       H.              H.            
----------------|-----------------|---------------|---------------|
----------------|-----------------|---------------|---------------|
----------------|-----------------|---------------|---------------|
--0--------L----|---L--------L----|--L------------|--L------------|
--0--------L----|---L--------L----|--L------------|--L------------|
--0--------L----|---L--------L----|--L------------|--L------------|


End part:

kitara 1

    S S S S  S  S S S S S S S S S S S    S S S S  S  S S S S S S S S S S S  
|-------------------------------------|------------------------------------|
|-------------------------------------|------------------------------------|
|*------------------------------------|------------------------------------|
|*--0-0-0-0-12-12-0-0-7-7-0-0-0-0-8-8-|--0-0-0-0-10-10-0-0-8-8-0-0-8-8-7-7-|
|-------------------------------------|------------------------------------|
|-------------------------------------|------------------------------------|


  S S S S  S  S S S S S S S S S S S    S S S S  S  S S S S S S S S S S S    
------------------------------------|-------------------------------------||
------------------------------------|-------------------------------------||
------------------------------------|------------------------------------*||
--0-0-0-0-12-12-0-0-7-7-0-0-0-0-8-8-|--0-0-0-0-10-10-0-0-8-8-0-0-7-7-8-8-*||
------------------------------------|-------------------------------------||
------------------------------------|-------------------------------------||


   S S E   E  S S E  S S S S E     S S S S  E  S S E  S S E  E   
--------------------------------|-------------------------------|
--------------------------------|-------------------------------|
*-------------------------------|-------------------------------|
*--0-0-0--12--0-0-7--0-0-0-0-8--|--0-0-0-0-10--0-0-8--0-0-8--7--|
--------------------------------|-------------------------------|
--------------------------------|-------------------------------|


                                                                    PM PM   
  S S E   E  S S E  S S S S E     S S S S  E  S S E  S S E  E       E  E    
-------------------------------|--------------------------------||--------||
-------------------------------|--------------------------------||--------||
-------------------------------|-------------------------------*||--------||
--0-0-0--12--0-0-7--0-0-0-0-8--|--0-0-0-0-10--0-0-8--0-0-7--8--*||--------||
-------------------------------|--------------------------------||--0--0--||
-------------------------------|--------------------------------||--0--0--||

kitara 2

                    PM               PM          PM PM             PM     
 E  E  E  S S S S E  E  E     E  E  E  E  E  E  E  E   
|-----------------------------|--------------------------|
|-----------------------------|--------------------------|
|*----------------------------|--------------------------|
|*----------------------------|--------------------------|
|---0--------0-0-0---0--0-----|--0--0--------------0-----|
|---0--------0-0-0---0--0-----|--0--0--------------0-----|


  PM               PM          PM PM                      
  E  E  E  S S S S E  E  E     E  E  E  E  E  E  E  E     
----------------------------|---------------------------||
----------------------------|---------------------------||
----------------------------|--------------------------*||
----------------------------|--------------------------*||
--0--------0-0-0---0--0-----|--0--0---------------------||
--0--------0-0-0---0--0-----|--0--0-----0--0--0--0--0---||


   PM               PM          PM PM             PM     
   E  E  E  S S S S E  E  E     E  E  E  E  E  E  E  E   
-----------------------------|--------------------------|
-----------------------------|--------------------------|
*----------------------------|--------------------------|
*----------------------------|--------------------------|
---0--------0-0-0---0--0-----|--0--0--------------0-----|
---0--------0-0-0---0--0-----|--0--0--------------0-----|


  PM               PM          PM PM                        PM PM   
  E  E  E  S S S S E  E  E     E  E  E  E  E  E  E  E       E  E    
----------------------------|---------------------------||--------||
----------------------------|---------------------------||--------||
----------------------------|--------------------------*||--------||
----------------------------|--------------------------*||--------||
--0--------0-0-0---0--0-----|--0--0---------------------||--0--0--||
--0--------0-0-0---0--0-----|--0--0-----0--0--0--0--0---||--0--0--||


Duration Legend
---------------
W - whole
H - half
Q - quarter
E - 8th
S - 16th
T - 32nd
X - 64th
. - note dotted
|-n-|  - n-tuplets


Tablature Legend
----------------
L - tied note
x - dead note
g - grace note
(n) - ghost note
> - accentuded note
NH - natural harmonic
AH - artificial harmonic
TH - tapped harmonic
SH - semi harmonic
PH - pitch harmonic
h - hammer on
p - pull off
b - bend
br - bendRelease
pb - preBend
pbr - preBendRelease
brb - bendReleaseBend
\n/ - tremolo bar dip
\n - tremolo bar dive
-/n - tremolo bar Release up
/n\ - tremolo bar inverted dip
/n - tremolo bar return
-\n - tremolo bar Release down
S - shift slide
s - legato slide
/ -  slide into from below or out of upwards
\ -  slide into from above or out of downwards
~ - vibrato
W - wide vibrato
tr - trill
TP - tremolo picking
T - tapping
S - slap
P - pop
< - fade in
^ - brush up
v - brush down
Добавлено: 15.06.2012
Другие материалы по этой песне:
  • Аккорды и текст

Страница создана 15.06.2012
http://primanota.ru/sortokausi/kaunis-harmonia-chords.htm
Привет, Гость.
Предлагаем пройти революционный курс по гитаре.
Подарок от PrimaNota.Ru, забирай!