PrimaNota.ru - самый крупный в мире бесплатный архив песенных текстов, аккордов, табулатур и нот


Sorority Noise - Your Soft Blood - таба, видео

Регистрация Запомнить меня
Войти через:  Facebook Google Twitter Vk Yandex Mail.ru

Sorority Noise - Your Soft Blood - таба, видео

Печатать
Просмотров: 69
Intro and Verse:

eb|--------------------------------------------------------------------------------------------------------|
Bb|--------3------------3--------------3--------------3-------------3-----------3---------3-----------3----|
Gb|-----3----3------3------3-------3-------3------3------3-------3-----3-----3---------3-----3-----3-----3-| x1
Db|--5-----------5-------------4---------------4-------------3------------3---------2-----------2----------|
Ab|--------------------------------------------------------------------------------------------------------|
C#|--------------------------------------------------------------------------------------------------------|


eb|----------------------------------------------------------------------------------------------|
Bb|-----------------6----------------6------------------7-------------7--------------------------|
Gb|--------------7-----7---------7-------7-----------7-----7-------7-----7-----------------------| x1
Db|----------------------------------------------------------------------------------------------|
Ab|-----------5--------------5--------------------5-------------5--------------------------------|
C#|----------------------------------------------------------------------------------------------|

Then this just repeated until Hook/Chorus


Hook/Chorus

eb|--------------------------------------------------------------------------------------------------|
Bb|---------3b--------3b--------3b---------3b--------------------------------------------------------|
Gb|--------------------------------------------------------------------------------------------------|
Db|--5------------4---------3--------2-------------1-----0-------------------------------------------|
Ab|--5-x3---------4-x3------3-x3-----2-x3----------1x8---0x7 Repeat as necessary---------------------|
C#|--5------------4---------3--------2-------------1-----0-------------------------------------------|

2nd Verse: Define me with long hair and cheap line

(Not sure if this is right but I play this two chords muted


eb|----------------------------------------------------------------|
Bb|----------------------------------------------------------------|
Gb|----------------7-----------------------------------------------|
Db|----------------7-x6-----8--------------------------------------|
Ab|----------------5--------8-x8-----------------------------------|
C#|-------------------------8--------------------------------------|

Then repeat Hook/Chorus

I don't know the crazy shredding part the lead guitarist plays, mostly because I learned this on an
acoustic guitar and don't have that many frets.
Добавлено: 06.03.2016
Другие материалы по этой песне:
  • Аккорды и текст

Страница создана 06.03.2016
http://primanota.ru/sorority-noise/your-soft-blood-chords.htm
Привет, Гость.
Предлагаем пройти революционный курс по гитаре.
Подарок от PrimaNota.Ru, забирай!