PrimaNota.ru - самый крупный в мире бесплатный архив песенных текстов, аккордов, табулатур и нот


Sorority Noise - Using - таба, видео

Регистрация Запомнить меня
Войти через:  Facebook Google Twitter Vk Yandex Mail.ru

Sorority Noise - Using - таба, видео

Печатать
Просмотров: 184
Уроки эстрадного вокала в Санкт-Петербурге
-------------------------------------------------------------------------------
                             USING - Sorority Noise
-------------------------------------------------------------------------------

Tuning: Drop C#

This is all based on their audiotree performance that was posted like 3 hours ago. I suck at guitar so some of
it will certainly be wrong but I tried my best haha. Just rhythm guitar
comment suggestions and I will consider them.


Verse 1
"I started using again..."
     m  m  m  m  m   m  m  m   m  m       
eb|--x--x--x--x--x---x--x--x---x--x----x--x--x--x------|             
Bb|--x--x--x--x--x---x--x--x---x--x----x--x--x--x------|   Play Three          
F#|--x--x--x--x--x---x--x--x---7--7----7--x--x--3------|      Times    
C#|--3--3--3--3--3---7--7--3---7--7----7--x--x--3------|             
G#|--3--3--3--3--3---7--7--3---5--5----5--x--x--1------|         
C#|--3--3--3--3--3---7--7--3---x--x----x--x--x--x------|         
 
"... shoulder said try this instead"
     m  m  m  m  m  m   m   m 
eb|--x--x--x--x--x--x---x---x---------|
Bb|--x--x--x--x--x--x---x---x---------|
F#|--x--x--x--x--x--x---x---x---------|
C#|--5--5--5--5--5--5---7---8---------|
G#|--5--5--5--5--5--5---7---8---------|
C#|--5--5--5--5--5--5---7---8---------|

Repeat Verse pattern for the short interlude

Verse 2
"I started sleeping again..."
     m  m  m  m  m   m  m  m   m  m       
eb|--x--x--x--x--x---x--x--x---x--x----x--x--x--x------|             
Bb|--x--x--x--x--x---x--x--x---x--x----x--x--x--x------|   Play Three          
F#|--x--x--x--x--x---x--x--x---7--7----7--x--x--3------|      Times    
C#|--3--3--3--3--3---7--7--3---7--7----7--x--x--3------|             
G#|--3--3--3--3--3---7--7--3---5--5----5--x--x--1------|         
C#|--3--3--3--3--3---7--7--3---x--x----x--x--x--x------|         
 

"I started sleeping again"
     m  m  m  m  m  m   m  m   
eb|--x--x--x--x--x--x---x--x---x--x--x--x--x--x--x--x--x--x-------|
Bb|--x--x--x--x--x--x---x--x---x--x--x--x--x--x--x--x--x--x-------|
F#|--x--x--x--x--x--x---x--x---x--x--x--x--x--x--x--x--x--x-------|
C#|--5--5--5--5--5--5---7--7---8--8--8--8--8--8--8--8--8--8-------|
G#|--5--5--5--5--5--5---7--7---8--8--8--8--8--8--8--8--8--8-------|
C#|--5--5--5--5--5--5---7--7---8--8--8--8--8--8--8--8--8--8-------|

Chorus
"I stopped wishing I was dead..."
eb|--x--x--x---x--x---x--x--x---x--x--x--x--x--x--x--x------|
Bb|--x--x--x---x--x---x--x--x---x--x--x--x--x--x--x--x------|    Play Three     
F#|--x--x--x---x--x---x--x--x---7--7--7--7--7--7--7--7------|      Times
C#|--3--3--3---7--7---3--3--3---7--7--7--7--7--7--7--7------|
G#|--3--3--3---7--7---3--3--3---5--5--5--5--5--5--5--5------|
C#|--3--3--3---7--7---3--3--3---x--x--x--x--x--x--x--x------|

"..worthy of your time"
eb|--x--x--x--x--x--x--x-------|
Bb|--x--x--x--x--x--x--x-------|
F#|--x--x--x--x--x--x--x-------|
C#|--5--5--5--5--5--7--8-------|
G#|--5--5--5--5--5--7--8-------|
C#|--5--5--5--5--5--7--8-------|

eb|--x--x--x-----------x--x--x---------------x--x--x---------x--x--x--x--x--x--x--x----|
Bb|--x--x--x-----------x--x--x---5p3-1-------x--x--x---------x--x--x--x--x--x--x--x----|
F#|--x--x--x----7-8----x--x--x----------3----x--x--x---7-8---x--x--x--x--x--x--x--x----|
C#|--3--3--3-----------3--3--3---------------3--3--3---------3--3--3--3--3--3--3--3----|
G#|--3--3--3-----------3--3--3---------------3--3--3---------3--3--3--3--3--3--3--3----|
C#|--3--3--3-----------3--3--3---------------3--3--3---------3--3--3--3--3--3--3--3----|

eb|--x--x--x-----------x--x--x---------------x--x--x---------x--x--x--x--x--x--x--x----|
Bb|--x--x--x-----------x--x--x---5p3-1-------x--x--x---------x--x--x--x--x--x--x--x----|
F#|--x--x--x----7-8----x--x--x----------3----x--x--x---7-8---x--x--x--x--x--x--x--x----|
C#|--3--3--3-----------3--3--3---------------3--3--3---------3--3--3--3--3--3--3--3----|
G#|--3--3--3-----------3--3--3---------------3--3--3---------3--3--3--3--3--3--3--3----|
C#|--3--3--3-----------3--3--3---------------3--3--3---------3--3--3--3--3--3--3--3----|

Verse 3
"I started smoking again..."
     m  m  m  m  m   m  m  m   m  m       
eb|--x--x--x--x--x---x--x--x---x--x----x--x--x--x------|             
Bb|--x--x--x--x--x---x--x--x---x--x----x--x--x--x------|   Play Three          
F#|--x--x--x--x--x---x--x--x---7--7----7--x--x--3------|      Times    
C#|--3--3--3--3--3---7--7--3---7--7----7--x--x--3------|             
G#|--3--3--3--3--3---7--7--3---5--5----5--x--x--1------|         
C#|--3--3--3--3--3---7--7--3---x--x----x--x--x--x------|         

"to prevent my blood from bleeding"
     m  m  m  m  m  m   m   m 
eb|--x--x--x--x--x--x---x---x-------|
Bb|--x--x--x--x--x--x---x---x-------|
F#|--x--x--x--x--x--x---x---x-------|
C#|--5--5--5--5--5--7---7---8-------|
G#|--5--5--5--5--5--7---7---8-------|
C#|--5--5--5--5--5--7---7---8-------|

"started smoking again"
eb|--x--x--x--x--x---x--x--x---x--x----x--x--x--x------|
Bb|--x--x--x--x--x---x--x--x---x--x----x--x--x--x------|    Play Twice
F#|--x--x--x--x--x---x--x--x---7--7----7--x--x--3------|
C#|--3--3--3--3--3---7--7--3---7--7----7--x--x--3------|
G#|--3--3--3--3--3---7--7--3---5--5----5--x--x--1------|
C#|--3--3--3--3--3---7--7--3---x--x----x--x--x--x------|

Bridge
"I started loving again, thought when I lost that will to live..."

Frankly I have no idea how to play this part so any suggestions would be greatly appreciated.

Final Chrous
"I stopped wishing I was dead..."
eb|--x--x--x---x--x---x--x--x---x--x--x--x/x--x--x------|              
Bb|--x--x--x---x--x---x--x--x---x--x--x--x/x--x--x------|   Play Three         
F#|--x--x--x---x--x---x--x--x---7--7--7--7/3--3--3------|       Times     
C#|--3--3--3---7--7---3--3--3---7--7--7--7/3--3--3------|                 
G#|--3--3--3---7--7---3--3--3---5--5--5--5/1--1--1------|               
C#|--3--3--3---7--7---3--3--3---x--x--x--x/x--x--x------|             

"..worthy of your time"
eb|--x--x--x--x--x--x--x---------------------------|                 
Bb|--x--x--x--x--x--x--x---------------------------|                
F#|--x--x--x--x--x--x--x---------------------------| Play Three                  
C#|--5--5--5--5--5--7--8---------------------------|   Times          
G#|--5--5--5--5--5--7--8---------------------------|               
C#|--5--5--5--5--5--7--8---------------------------|               

************************************

| /   slide up
| \   slide down
| h   hammer-on
| p   pull-off
| ~   vibrato
| +   harmonic
| x   Mute note
| b   Bend
| pb  Pre-bend
| br  Bend release
| pbr Pre-bend release
| brb Bend release bend

************************************
Добавлено: 06.03.2016
Другие материалы по этой песне:
  • Аккорды и текст

Страница создана 06.03.2016
http://primanota.ru/sorority-noise/using-chords.htm
Привет, Гость.
Предлагаем пройти революционный курс по гитаре.
Подарок от PrimaNota.Ru, забирай!