PrimaNota.ru - самый крупный в мире бесплатный архив песенных текстов, аккордов, табулатур и нот


Sorority Noise - Dirty Ikes - таба, видео

Регистрация Запомнить меня
Войти через:  Facebook Google Twitter Vk Yandex Mail.ru

Sorority Noise - Dirty Ikes - таба, видео

Печатать
Просмотров: 58
-------------------------------------------------------------------------------
                             DIRTY IKES - Sorority Noise
-------------------------------------------------------------------------------
Tabbed by: Lauren (gravityt0feel)
E-mail: laurenmusicx3@gmail.com

This song is repetitive.

Tuning: C#

Intro:
e|---------------------------------------------------------------------------|
B|---------------------------------------------------------------------------|
G|---9-----9-----------------------------------------------------------------|
D|---9-----9------4-------6---7----------------------------------------------| Repeat
A|---7-----7------4-------6---7----------------------------------------------|
E|----------------4-------6---7----------------------------------------------|

Pre-Verse:
e|-------------------|           e|----------------| 
B|-------------------|           B|----------------| 
G|---9-9-9-9-9-9-----|           G|----------------| 
D|---9-9-9-9-9-9-----| Repeat 3x D|---4--6--7--9---| Repeat entire PRE-VERSE until "I taught myself French.."
A|---7-7-7-x-x-x-----|           A|---4--6--7--9---| 
E|---------7-7-7-----|           E|---4--6--7--9---| 

Verse:
e|---------------------------------------------------------------------------|
B|---------------------------------------------------------------------------|
G|--9---------9-----9--------------------------------------------------------|
D|--9---------9-----9-----4-6-7-9--------------------------------------------| Repeat 
A|--7---------7-----x-----4-6-7-9--------------------------------------------|
E|------------------7-----4-6-7-9--------------------------------------------|

Bridge: "I'm not going anywhere..."

(1:03)
e|-------------------|           e|----------------| 
B|-------------------|           B|----------------| 
G|---9-9-9-9-9-9-----|           G|----------------| 
D|---9-9-9-9-9-9-----| Repeat 3x D|---4--6-7-9-----| Repeat entire PRE-VERSE
A|---7-7-7-x-x-x-----|           A|---4--6-7-9-----| 
E|---------7-7-7-----|           E|---4--6-7-9-----| 

"I taught myself Spanish.." (1:16)
e|---------------------------------------------------------------------------|
B|---------------------------------------------------------------------------|
G|--9---------9-----9--------------------------------------------------------|
D|--9---------9-----9-----4-6-7-9--------------------------------------------| Repeat 
A|--7---------7-----x-----4-6-7-9--------------------------------------------|
E|------------------7-----4-6-7-9--------------------------------------------|

"When we broke up..." (1:30)
e|-------------------------------------------------------------|
B|-------------------------------------------------------------|
G|--9----------------------------------------------------------|
D|--9----9-----4--6--7-----------------------------------------| Repeat 
A|--7----x-----4--6--7-----------------------------------------|
E|-------7-----4--6--7-----------------------------------------|
    x    x     x  x  x

e|-------------------|           e|----------------| 
B|-------------------|           B|----------------| 
G|---9-9-9-9-9-9-----|           G|----------------| 
D|---9-9-9-9-9-9-----| Repeat 3x D|---4--6-7-9-----| Repeat entire PRE-VERSE
A|---7-7-7-x-x-x-----|           A|---4--6-7-9-----| 
E|---------7-7-7-----|           E|---4--6-7-9-----| 

OUTRO:
e|---------------------------------------------------------------------------|
B|---------------------------------------------------------------------------|
G|---------------------------------------------------------------------------|
D|--11--9--7----11--13--14---------------------------------------------------|
A|--11--9--7----11--13--14---------------------------------------------------|
E|--11--9--7----11--13--14---------------------------------------------------|


************************************

| /   slide up
| \   slide down
| h   hammer-on
| p   pull-off
| ~   vibrato
| +   harmonic
| x   Mute note
| b   Bend
| pb  Pre-bend
| br  Bend release
| pbr Pre-bend release
| brb Bend release bend

************************************
Добавлено: 06.03.2016
Другие материалы по этой песне:
  • Аккорды и текст

Страница создана 06.03.2016
http://primanota.ru/sorority-noise/dirty-ikes-chords.htm
Привет, Гость.
Предлагаем пройти революционный курс по гитаре.
Подарок от PrimaNota.Ru, забирай!