PrimaNota.ru - самый крупный в мире бесплатный архив песенных текстов, аккордов, табулатур и нот


Sopwith Camel - Hello Hello - аккорды и текст, таба, видео

Регистрация Запомнить меня
Войти через:  Facebook Google Twitter Vk Yandex Mail.ru

Sopwith Camel - Hello Hello - аккорды и текст, таба, видео

Печатать
Просмотров: 96
Авторы: Peter Kraemer, Terry MacNeil

Hello Hello
Sopwith Camel
HELLO HELLO
THE SOPWITH CAMEL from J. Robson e-mail J@LaffingAcacdemy.com

The first album on Kama Sutra Records in 1967, featured "Hello-Hello." 
The single reached number one in many markets and the Top 10 in Billboard. 
The Sopwith Camel had the first national hit out of San Francisco's 
pyschedelic band scene. The album cover was done by Victor Moscoso. 
 
INTRO B/C/Am/F/G7  /C/G 

Hello...  [C F]
I like your... [C F]
Hello... [C F]
Shall we talk...  [C F]
Would'nt you like...  [G Am Am/D D7]
I know I'll never... [C G7 C]

E----------------------------------------------------------------
B----------------------------------------------------------------
G--0--h2--0----------------------------------------------------------
D------------1/2----------------------------------------------------
A-----------------3-----0--1--2--------------------------------------
E--------------------3--------------------------------------------

(Last note of tab is 1st beat of following)

Never kne [B Em]
Didn't know  [B Am]
When I saw  [G C]
I knew I  [F D7]

Hello hello hello hello [C F]
(INST to remaining verse chords)


I know ............ mean oh no. [C G7 C A7 ]
I know ............ mean [D7 G7 C]

Last 9 notes before C7 played with bass
E--3/8--7--6--5--4--3--2--1-----------------------------0------------------
B-------------------------------------------------------1--------
G-------------------------------------------------------3---------
D----------------------------5--5--5--1--2--------------2--------------
A-------------------------------------------3-----------3----------
E----------------------------------------------3--5--3--------------

     
Добавлено: 18.08.2013
Другие материалы по этой песне:
  • Аккорды и текст

Страница создана 28.03.2012
http://primanota.ru/sopwith-camel/hello-hello-chords.htm
Привет, Гость.
Предлагаем пройти революционный курс по гитаре.
Подарок от PrimaNota.Ru, забирай!