PrimaNota.ru - самый крупный в мире бесплатный архив песенных текстов, аккордов, табулатур и нот


Sonu Nigam - Main Pyaar Hoon Tera - таба, видео

Регистрация Запомнить меня
Войти через:  Facebook Google Twitter Vk Yandex Mail.ru

Sonu Nigam - Main Pyaar Hoon Tera - таба, видео

Печатать
Просмотров: 92
 Sonu nigam – Main pyaar hoon tera
       From the album Jaan

By Sanjeev george and Thomas George
Sanjeevgeorge123@yahoo.co.in

Intro:  E    A

e|----------------------------------------------------------------------------|
B|----------------------------------------------------------------------------|
G|---------1-----1------1h2--1------------------------------------------------|
D|-------2---4-------4---------2-----2p1-----1----1---1h2--1------------------|
A|-----2---------------------------------2-4---4----4--------2----------------|
E|----------------------------------------------------------------------------|

Then      F#m        B         E

Verse 1
      E               F#m
Main pyaar hoon tera jaane na tu

      F#m         B     A    E  
Jaane na tu haan maane na tu

      E               F#m
Main pyaar hoon tera jaane na tu

      F#m         B     A    E  
Jaane na tu haan maane na tu

   E                 A
Tera hi aashiq hoon mein

  F                E
Mujhko tu pehchaan le

  E                A
Yun to mein mar jaaoonga

   F            A
Kehna mera maan le

   E      A      E
Kehna mera maan le

      E               F#m
Main pyaar hoon tera jaane na tu

      F#m         B     A    E  
Jaane na tu haan maane na tu

E    G#m    E

E    G#m    A

F#m    G#m     E

Solo 1
e|----------------------------------------------------------------------------|
B|-------7--10--9---7------------------------9--7-----------------------------|
G|---7s9---------------9—9s11--------6s8--9---------9--8—8s9v-----------------|
D|----------------------------------------------------------------------------|
A|----------------------------------------------------------------------------|
E|----------------------------------------------------------------------------|

Stanza 1

E                    A        E
Aaya hoon mein paas tere ae sanam
  E                 A         E
Dil mein chupa ke laya tere ghum
     E         A          F        E
Kya karoon tu bata meri hai kya khata


Verse 2( same chords as verse 1)
Kyon pyaar mein mujhe tadpaaye tu
Tadpaaye tu kyon tarsaaye tu
Kyo pyaar mein mujhe tadpaaye tu
Tadpaaye tu kyon tarsaaye tu

Solo 2

e|------------------------------------------------------------|
B|----------------------------------------9-7-----------------|
G|-----------------------------4s6-6----------9-8-9-6---------|
D|-----0h2--2--2-2--4---6--------------6----------------------|
A|------------------------------------------------------------|
E|------------------------------------------------------------|


e|--------------------------------------------------------|
B|--------------------------------------------------------|
G|-------------8s9--8--6----------------------------------|
D|----4s6--6--------------9-----6------6h9p6--------------|
A|----------------------------------9---------------------|
E|--------------------------------------------------------|

e|-------------------------------5s7s5----------|
B|-----------------------------5-------5s7s5----|
G|---6s8--8-8--6-----------4s6------------------|
D|----------------9--7--------------------------|
A|----------------------------------------------|
E|----------------------------------------------|


e|----------------------------------------------|
B|----------------------------------------------|
G|------------4s6-------------------------------|
D|----2s4--4-------9--7-6----7-9—7h9p7-6--------|
A|----------------------------------------------|
E|----------------------------------------------|

then  E A B F#m
      B A E


Stanza 2 (same chords as stanza 1):
Maine tere naam likh di zindagi o o
Kitni bhi karle mujhse berukhi
Le mera imtihaan aur bhi aazmaan


Verse 3 (same chords as verses 1 and 2):
Har saans mein tere bas jaaoonga
Ek din tujhe haan mein paaoonga

Back to Verse 1:
Main pyaar hoon tera jaane na tu
Jaane na tu haan maane na tu
Tera hi aashiq hoon mein
Mujhko tu pehchaan le
Yun to mein mar jaaoonga
Kehna mera maan le

Main pyaar hoon tera jaane na tu
Jaane na tu haan maane na tu
Main pyaar hoon tera jaane na tu
Jaane na tu haan maane na tu


The end
Добавлено: 15.05.2012
Другие материалы по этой песне:
  • Аккорды и текст

Страница создана 15.05.2012
http://primanota.ru/sonu-nigam/main-pyaar-hoon-tera-chords.htm
Привет, Гость.
Предлагаем пройти революционный курс по гитаре.
Подарок от PrimaNota.Ru, забирай!